a b c d e f g h i j k l m n o p q r s t u v w x y z 0-9

Y De La Gasolina Renacio El Amor

Panda

			
?Y DE LA GASOLINA RENACIO EL AMOR?

Intro acústico?
Si lo que quieres es que te pida perdón?
e|--0-0-0-0-0--|--3-3-3-3-3--|--2-2-2-2-2-2-2-2-2-2--|
B|--0-0-0-0-0--|--3-3-3-3-3--|--3-3-3-3-3-3-3-3-3-3--|
G|--0-0-0-0-0--|--0-0-0-0-0--|--2-2-2-2-2-2-2-2-2-2--|
D|--2-2-2-2-2--|--0-0-0-0-0--|--0-0-0-0-0-0-0-0-0-0--|
A|--2-2-2-2-2--|--2-2-2-2-2--|-----------------------|
E|--0-0-0-0-0--|--3-3-3-3-3--|-----------------------| 4x
Intro eléctrico
e|-------------------------------------------------------------|
B|-------------------------------------------------------------|
G|-------------------------------------------------------------|
D|22-2-2-------------------------0----0------------------------|
A|22-2-2---2-22-222--333-33-----2----2-------------------------|
E|00-0-0-2-3-33-333--555-55?-0-2----2--------------------------| 2x

e|--2/3--2/3--2/3--2/3--2/3------------------------------------|
B|--3/4--3/4--3/4--3/4--3/4------------------------------------|
Versos?
Asi será pues nunca nada te falto?
e|-------------------------------------------------------------|
B|-------------------------------------------------------------|
G|-------------------------------------------------------------|
D|22-2-2----------------4--7--4--5--4--------------------------|
A|22-2-2---2-22-222---55-55-55-55-55---------------------------|
E|00-0-0-2-3-33-333--------------------------------------------| 4x
Precoro 1?
Razones ahí, razones de sobra tengo ya?
e|--0--3--3---0--3--3-3--2-------------------------------------|
B|--0--3--3---0--3-3-3---3-------------------------------------|
G|--0--0--0---0--0-------2-------------------------------------|
D|--2--0--0---2--0-------0-------------------------------------|
A|--2--2------2--2---------------------------------------------|
E|--0--3------0--3---------------------------------------------|
Coro
Te juro que si estas en fuegooo?
e|-------------------------------------------------------------|
B|-------------------------------------------------------------|
G|55555--------------------------------------------------------|
D|55555-55555--777777-7/9-9-7-5--------------------------------|
A|33333-55555--777777-7/9-9-7-5--------------------------------|
E|------33333--555555-5/7-7-5-3--------------------------------| 4x

e|-------------------------------------------------------------|
B|-------------------------------------------------------------|
G|5555---------------------------------------------------------|
D|5555-55555--7777~--------2~----------------------------------|
A|3333-55555--7777~--------2~----------------------------------|
E|-----33333--5555---------0~----------------------------------|
Intro eléctrico
e|-------------------------------------------------------------|
B|-------------------------------------------------------------|
G|-------------------------------------------------------------|
D|22-2-2-------------------------0----0------------------------|
A|22-2-2---2-22-222--333-33-----2----2-------------------------|
E|00-0-0-2-3-33-333--555-55?-0-2----2--------------------------| 2x



Versos?
Es muy difícil que todo esto pase ya?
e|-------------------------------------------------------------|
B|-------------------------------------------------------------|
G|-------------------------------------------------------------|
D|22-2-2----------------4--7--4--5--4--------------------------|
A|22-2-2---2-22-222---55-55-55-55-55---------------------------|
E|00-0-0-2-3-33-333--------------------------------------------| 4x

Precoro 2?
En energía negativa?
e|--------------------------|----------------------------------|
B|--------------------------|----------------------------------|
G|-0-----------0-0----------|-0-----------0-0------------------|
D|--0-----0---4-4-4-0-------|--0-----0---4-4-4-0-4-------------|
A|---0---0-0-5--------0-----|---0---0-0-5----------------------|
E|----0-2---------------3x|----0-2---------------------------|


Coro
Te juro que si estas en fuegooo?
e|-------------------------------------------------------------|
B|-------------------------------------------------------------|
G|55555--------------------------------------------------------|
D|55555-55555--777777-7/9-9-7-5--------------------------------|
A|33333-55555--777777-7/9-9-7-5--------------------------------|
E|------33333--555555-5/7-7-5-3--------------------------------| 4x

e|-------------------------------------------------------------|
B|-------------------------------------------------------------|
G|5555---------------------------------------------------------|
D|5555-55555--7777~--------------------------------------------|
A|3333-55555--7777~--------------------------------------------|
E|-----33333--5555~--------------------------------------------|
Final?
Uuouooooo? uuouuooooo?
e|-------------------------------------------------------------|
B|-12-10-12----12-10-12---10-13-12-10--12-10-12----------------|
G|---------12v---------12v---------------------12v-------------|
D|-------------------------------------------------------------|
A|-------------------------------------------------------------|
E|-------------------------------------------------------------|

e|----------------------------------------|      |-----|
B|-12-10-12---10-13-12-10--12-10-12-------|      |-----|
G|---------12v---------------------12v----|      |-11v-|
D|----------------------------------------|      |-----|
A|----------------------------------------|      |-----|
E|----------------------------------------| 2x |-----|

Fuente: Tusacordes