a b c d e f g h i j k l m n o p q r s t u v w x y z 0-9

Y De La Gasolina Renacio El Amor

Panda

			
?Y DE LA GASOLINA RENACIO EL AMOR

___           ___   _   ___           ___   ____
           /    / |_|             /   / /      
          /    /   _             /   / /         
         /    /   |  |          /   / /    /    
        /    /    |  |         /   / /    /__   
       /    /     |  |        /   / /      ____    
             /      |  |              / /     /          
      \____/       |_|       \____/ /___/        \___

 _____    ___       ___    _        _   _       ___         ___
|   __           /    /  |     |   | | ¨-_           /    /
|  |    |        /    /   |     |   | |    ¨_         /   / 
| |__/  |       /    /    |     |   | |  |  ¨      /    /
|  ___ /      )         (     |     |   | |  |  )  )   )          (
|  |          /    /        |   |     | |  |/  _  /     /    
|  |         /    /         |   |     | |   _-¨ /     /      
|_|        /___/    \___ |_ |  \__| |_-¨   /___/    \___

y de la gasolina renacio el amor
pXndX

k 0nda....
es mi segUnda tablatura-la primera es un asco-oxala les guste
Las canciones d panda estan afinadas en bemol... asi que si no les suena bien toquenla medio tono abajo :)

intro 0:00
   E   D  Am
E|-0-|-2-|-0-|
B|-0-|-3-|-1-|
G|-1-|-2-|-2-| x4
D|-2-|-0-|-2-|
A|-2-|-0-|-0-|
E|-0-|-0-|-0-|
intro 0:19
E|------------------------------------------------|
B|------------------------------------------------|
G|------------------------------------------------|x2
D|----------------------------------------0-----0-|
A|-2-2-0-2--2-2-2--2-2-2--3-3--3-3--3-------------|
E|-0-0-2-0--3-3-3--3-3-3--5-5--5-5--5-5-5---5-5---|

E|------------|
B|------------|
G|-3p3p3p3p3~ |
D|------------|
A|------------|
E|------------|

Verso 0:30        x4
E|------------------------------------------------------|
B|------------------------------------------------------|
G|----------------------------4-----7-----4-----7-----5-|
D|------------------------4-4---4-4---4-4---4-4---4-4---|
A|-2-2-0-2--2-2-2--2-2-2--5-5---5-5---5-5---5-5---5-5---|
E|-0-0-2-0--3-3-3--3-3-3--------------------------------|

Precoro 0:51
E|--------2--3-2--------2--2------|
B|-----5--3------3-0-1--3----3--2-|
G|---5----2----------0--2-------2-|
D|-5-----------------2----------2-|
A|--------------------------------|
E|--------------------------------|

Coro 1:00
E|------------------------------------|   
B|------------------------------------|  
G|-44444444----------66666666-6-8-6-4-|x3 
D|-44444444-44444444-66666666-6-8-6-4-|   
A|-22222222-44444444-44444444-4-6-4-2-|   
E|----------22222222------------------|   

E|------------------------------------|   E|------------|
B|------------------------------------|   B|------------|
G|-44444444----------6666666666666666-|   G|-4-4-----6~ |
D|-44444444-44444444-6666666666666666-|   D|-4-4-4-4-6~ |
A|-22222222-44444444-4444444444444444-|   A|-2-2-4-4-4~ |
E|----------22222222------------------|   E|-----2-2----|

intro 1:24 igual  (excepto el final)
Verso 1:35 igual 

Precoro 1:54
E|------------------------------------|
B|------------------------------------|
G|------------------------0---0---0---| x4
D|---2--------6---------4---4---4---4-|
A|-----3--------7-----5---------------|
E|-4-----4--4-----4-------------------|

Coro 2:13
E|------------------------------------| 
B|------------------------------------|  
G|-44444444----------66666666-6-8-6-4-|x3 
D|-44444444-44444444-66666666-6-8-6-4-|   
A|-22222222-44444444-44444444-4-6-4-2-|  
E|----------22222222------------------|   

E|------------------------------------| 
B|------------------------------------|  
G|-44444444----------6666666666666666-|   
D|-44444444-44444444-6666666666666666-|   
A|-22222222-44444444-4444444444444444-|   
E|----------22222222------------------| 

Outro 2:32
Guitarra 1
E|-8-6-8-4--8-6-8-6--9-8-6-|
B|-------------------------|
G|-------------------------| x3
D|-------------------------|
A|-------------------------|
E|-------------------------|

Guitarra 2
E|-----------------|
B|-----------------|
G|-4-4-----6-6-6-6-| x3
D|-4-4-4-4-6-6-6-6-|
A|-2-2-4-4-4-4-4-4-|
E|-----2-2---------|

Guitarra 1
E|-8-6-8-4------|
B|--------------|
G|-----------6~ |
D|-----------6~ |
A|-----------4~ |
E|--------------|

Guitarra 2
E|------------|
B|------------|
G|-4-4-----6~ |
D|-4-4-4-4-6~ |
A|-2-2-4-4-4~ |
E|-----2-2----|

Fuente: tusacordes.com