a b c d e f g h i j k l m n o p q r s t u v w x y z 0-9

Y De La Gasolina Renacio El Amor

Panda

E
G
D
			
 NOTA : LA AFINACION ES EN BEMOL
       [ebBbGbDbAbEb]
INTRO:
ESTROFA:
 E          G         D
Si lo que quieres es que te pida perdon
 E         G            D
puedes aguantar la respiracion
         E       G
hasta que el aire se te acabe
   D                        E
la vida se te acabe y te afixies
       G         D
pues nunca lo hare

eb-------------------------------------------------------
Bb-------------------------------------------------------
Gb--------------------------------77-7-77-7--------------
Db-22-2-2-4-5-55-55-5-77-7-77-7---77-7-77-7--------------
Ab-22-2-2-4-5-55-55-5-77-7-77-7---55-5-55-5--------------
Eb-00-0-0-2-3-33-33-3-55-5-55-5--------------------------
   **   *     *  **   **   *      **   **

eb-------------------------------------------------------
Bb-------------------------------------------------------
Gb--------------------------------77-7-77-7-7b7b-7b7b-7b-
Db-22-2-2-4-5-55-55-5-77-7-77-7---77-7-77-7--------------
Ab-22-2-2-4-5-55-55-5-77-7-77-7---55-5-55-5--------------
Eb-00-0-0-2-3-33-33-3-55-5-55-5--------------------------
   **   *     *  **   **   *      **   **

ESTROFA

eb-------------------------------------------------------
Bb-------------------------------------------------------
Gb-------------------------------------------------------
Db-22-2-2-4-5-55-55-5-----4-7-5--4---5p4-----------------
Ab-22-2-2-4-5-55-55-5---55-5-5--5--5---------------------
Eb-00-0-0-2-3-33-33-3------------------------------------
   **   *     *  **     ** * *  *  *
asi sera pues nunca nada te falto
nunca hice cosas para pedirte perdon
pero tu me apu“alaste
mas nunca me mataste
apurate o yo disparare

Pre Estribillo
E  G      D
razones hay

E        G          D
razones de sobra tengo ya

C5       G5            D5     D5/E5/D5/C5
te juro que si estas en fuego
C5       G5            D5     D5/E5/D5/C5
no te preocupes me hare cargo gasolina buscare
C5       G5            D5     D5/E5/D5/C5
grita mi nombre yo te reto
C5       G5            D5 C5 ? G5 ? D5 [deja sonar]
sofocaras el sentimiento uhoooo

INTRO
eb-------------------------------------------------------
Bb-------------------------------------------------------
Gb--------------------------------77-7-77-7--------------
Db-22-2-2-4-5-55-55-5-77-7-77-7---77-7-77-7--------------
Ab-22-2-2-4-5-55-55-5-77-7-77-7---55-5-55-5--------------
Eb-00-0-0-2-3-33-33-3-55-5-55-5--------------------------
   **   *     *  **   **   *      **   **

eb-------------------------------------------------------
Bb-------------------------------------------------------
Gb--------------------------------77-7-77-7--------------
Db-22-2-2-4-5-55-55-5-77-7-77-7---77-7-77-7--------------
Ab-22-2-2-4-5-55-55-5-77-7-77-7---55-5-55-5--------------
Eb-00-0-0-2-3-33-33-3-55-5-55-5--------------------------
   **   *     *  **   **   *      **   **


ESTROFA
es muy dificil que todo esto pase ya
solamente necesito una oportunidad
pues todas esas fuerzas todo lo que yo sentia por ti
lo convertire

PRE ESTRIBILLO
en energia negativa
y ahi te va mi maldicion
ojala tus ojos
me extra“en tanto hasta que sangren

ESTRIBILLO
te juro que si estas en fuego
no te preocupes me hare cargo gasolina buscare
grita mi nombre yo te reto
sofocaras el sentimiento

eb-----8-7-8---7-5-7-5-8-7-5----------
Bb-----------8------------------------
Gb------------------------------------
Db------------------------------------
Ab------------------------------------
Eb------------------------------------


    C5     G5     D5
uhoooo uhoooo uhoooo uhoooo

FIN EN D5 

Fuente: tusacordes.com