a b c d e f g h i j k l m n o p q r s t u v w x y z 0-9

Un Tipo De Indulgencia

Panda

			
k ped000000!!!!!!
arriba pXndX!!!!

Intro
Guitarra 1
eb|----------12------------------------|---------9-----------------|
Bb|----12-14----14--12----12--12h14-12-|----9-10---10--9---------9-|
Gb|-14-----------------14--------------|-11--------------11-9-10---|
Db|------------------------------------|---------------------------|
Ab|------------------------------------|---------------------------|
Eb|------------------------------------|---------------------------| x2

Guitarra 2
    A5                B5              A5               M5 
eb|------------------------------------------------------------x2------|
Bb|--------------------------------------------------------------------|
Gb|--------------------------------------------------------------------|
Db|-5555555555555555-2222222222222222-555555555555555-0000000000000000-|
Ab|-7777777777777777-4444444444444444-777777777777777-2222222222222222-|
Eb|-7777777777777777-4444444444444444-777777777777777-2222222222222222-|

Verso
eb|---------------------------------------------------------------------|
Bb|-14----14----14-----12----12----12-----10----10----10----9---9---9---|
Gb|---14----14----14-----13----13----13-----11----11----11----9---9--9--|
Db|-----14----14-----------14----14-----------12----12---------9---9----|
Ab|---------------------------------------------------------------------|
Eb|---------------------------------------------------------------------|

Precoro
Teclado                                              Guitarra
eb|-17..-16-19-----16-21-19-17..-16-19-----16-21-19-|----------------|
Bb|------------19..--------------------19..---------|----------------|
Gb|-------------------------------------------------|---6///---------|
Db|-------------------------------------------------|---7///--7///---|
Ab|-------------------------------------------------|---5///--9///---|
Eb|-------------------------------------------------|---------7///---|


Coro
Ambas guitarras
    A5       B5       M5
eb|-------------------------------------|
Bb|-------------------------------------|
Gb|-------------------------------------|
Db|-77777777-44444444-22222222-22222222-| x4
Ab|-77777777-44444444-22222222-22222222-|
Eb|-55555555-22222222-00000000-00000000-|

Teclado
eb|-----------------------------------------------7-----7-----7-----7-|
Bb|-9-10-9-10-9-10-9-10-9-10--9-10----9-10----9-10--9-10--9-10--9-10--|
Gb|-------------------------------11------11--------------------------|
Db|-------------------------------------------------------------------|
Ab|-------------------------------------------------------------------|
Eb|-------------------------------------------------------------------|

Se repite el intro



Verso primero puro bajo y al 01:56 la guitarra 2 hace esto muteando
eb|------------------------------------------------------------|
Bb|------------------------------------------------------------|
Gb|------------------------------------------------------------|
Db|------------------------------------------------------------|
Ab|-7----7----7----9----9----9----4----4----4----7----7----7---|
Eb|-5-55-5-55-5-5--7-77-7-77-7-7--2-22-2-22-2-2--5-55-5-55-5-5-|

Precoro y coro igual

Bridge
Guitarra 2
eb|-------------------------------------------------------------------|
Bb|-------------------------------------------------------------------|
Gb|-------------------------------------------------------------------|
Db|----7-7---9-9----7-7---11-11------9-9-----11-11------9-9-----11-11-|
Ab|-9-9---9-9----9-9---9-9------11-11---11-11------11-11---11-11------|x4
Eb|-------------------------------------------------------------------|

Solo
Guitarra 1
eb|--------------9v---------------9v---------------9v---------------9v-|
Bb|-10t9h7-7/9-10----10t9h7-7/9-10----10t9h7-7/9-10----10t9h7-7/9-10---|
Gb|--------------------------------------------------------------------|

eb|-----------------12v-----------------12v-----------------12v--------|
Bb|-12t10h9-9/10-12------12t10h9-9/10-12-----12t10h9-9/10-12-----------|
Gb|--------------------------------------------------------------------|

eb|-----------------12v---|
Bb|-12t10h9-9/10-12-------|
Gb|-----------------------|

eb|--------------11v--------------11v---------------11v----------------|
Bb|-10t9h7-7/9-10----10t9h7-7/9-10----10t9h7-7/9-10--------------------|
Gb|--------------------------------------------------------------------|

eb|---------------11v----|
Bb|-10t9h7-7/9-10--------|
Gb|----------------------|

eb|--------------------------------------------------------------------|
Bb|-12t10h9-9/10v---14th12/10-10/12v-----------------------------------|
Gb|--------------------------------------------------------------------|

eb|--------------9v---------------9v---------------9v---------------9v-|
Bb|-10t9h7-7/9-10----10t9h7-7/9-10----10t9h7-7/9-10----10t9h7-7/9-10---|
Gb|--------------------------------------------------------------------|

eb|-----------------12v-----------------12v-----------------12v--------|
Bb|-12t10h9-9/10-12------12t10h9-9/10-12-----12t10h9-9/10-12-----------|
Gb|--------------------------------------------------------------------|

eb|-----------------12v---|
Bb|-12t10h9-9/10-12-------|
Gb|-----------------------|


eb|------------------------------------------------------------12--14-16|
Bb|------------------------------------------12--12-14-16-14-16--16-----|
Gb|-14/11----------------11-12-11-12-14-12-14--14-----------------------|
Db|-14/10-10-12-14-12-14------------------------------------------------|
Ab|---------------------------------------------------------------------|
Eb|---------------------------------------------------------------------|

Outro
Guitarra 1
eb|----------12------------------------|---------9-----------------|
Bb|----12-14----14--12----12--12h14-12-|----9-10---10--9---------9-|
Gb|-14-----------------14--------------|-11--------------11-9-10---|
Db|------------------------------------|---------------------------|
Ab|------------------------------------|---------------------------|
Eb|------------------------------------|---------------------------|

eb|----------12--------------12h14-12--|---------9-12--------------|
Bb|----12-14----14--12-12-14-----------|----9-10---10--9---------9-|
Gb|-14---------------------------------|-11--------------11-9-10---|
Db|------------------------------------|---------------------------|
Ab|------------------------------------|---------------------------|
Eb|------------------------------------|---------------------------|

eb|--------------------17^-14h16-12-----------------16h17-16-12----|
Bb|-------------------------------------------15-13----------------|
Gb|-14-12----------------------------16-14/13----------------------|
Db|-------14/11-14/12----------------------------------------------|
Ab|----------------------------------------------------------------|
Eb|----------------------------------------------------------------|

eb|-----------------17^-14h16-12------------------16h17-14h16-12^--14~~-|
Bb|---------------------------------------------------------------------|
Gb|-14-12-----------------------------------15-13-----------------------|
Db|-------14/11-14v----------------16-14/13-----------------------------|
Ab|---------------------------------------------------------------------|
Eb|---------------------------------------------------------------------|

guitarra 2          durante el outro       termina en
    A5        B5        A5        M5         A5 
eb|----------------------------------------|--5~ |
Bb|----------------------------------------|--7~ |
Gb|----------------------------------------|--7~ |
Db|-55555555--44444444--55555555--22222222-|-----|
Ab|-55555555--44444444--55555555--22222222-|-----|
Eb|-77777777--22222222--77777777--00000000-|-----|

Fuente: Tusacordes