a b c d e f g h i j k l m n o p q r s t u v w x y z 0-9

Tus Palabras Punzocortantes

Panda

			
Afinación : Bemol medio tono abajo

es mi primera trascripción asi que sean comprensibles
y califíquenla bien para que no la borren...
...Bueno ahí les va...

Intro:
Junto al bajo:
00:02
D# |---------------------------|
A# |-----------------10h12-----|x2
F# |----7-11-------------------|
C# |--9-------9----------------|
G# |---------------------------|
D# |---------------------------|

00:16
D# |---------------------------|
A# |-----------------15h17-----|x2
F# |-----12--16----------------|
C# |--14---------14------------|
G# |---------------------------|
D# |---------------------------|

00:26
Yo inconsolable estoy...

D# |---------------------------------------------|
A# |---------------------------------------------|x2
F# |-12--14-14---------12--16---------14-12------|
C# |------------12-----------12--14--------------|
G# |---------------------------------------------|
D# |---------------------------------------------|

Con distorsión:
00:50
Yo he descubierto ya...
D# |---------------------------------------------------|
A# |---------------------------------------------------|x2
F# |---------------------777777----555555--------------|
C# |-555555----222222----777777----555555----999-999---|
G# |-555555----222222----555555----333333----999-999---|
D# |-333333----000000------------------------777-777---|

01:49
No, no veas mis ojos no...
D# |---------------------------------------------------|
A# |---------------------------------------------------|x2
F# |---------------------777777----555555--------------|
C# |-555555----222222----777777----555555----999-999---|
G# |-555555----222222----555555----333333----999-999---|
D# |-333333----000000------------------------777-777---|

El resto es guitarra sin distorsión...Fuente: Tus acordes