a b c d e f g h i j k l m n o p q r s t u v w x y z 0-9

Tus Palabras Punzocortantes

Panda

F#
D#m
C#
B
			
 Tus palabras punzocortantes 

intro
d#-------6----------9h11 9h11------|------7--------10h12?10h12-------|
A#-----7-----11--------------------|----8----12----------------------|
F#---8-------------------------|x2-|--9-------------------------|x2--|
C#--------------13-----------------|------------14-------------------|
G#---------------------------------|---------------------------------|
D#---------------------------------|---------------------------------|
solo encuentren los tiempos y ya la tienen!!

F#
Yo
              D#m
Inconsolable estoy
             C#
Me invade soledad
  B        C#
Estoy mejor.

F#D#m
Haz aprendido ya
            C#
Poder disimular
     B    C#
Al llorar.

F#
Yo
              D#m
He descubierto ya
                 C#
La manera de expresar
     B       C#
Sin titubear.

F#
Y aquí
          D#m
Tengo para ti
              C#
Seis palabras
              B    C#
Sin ti vuelvo a ser yo.

F#   D#m
Y hoy
          C#         B 
Me siento con tanta razón
        La#m          B 
Y tengo toda la intención
      C#
De herir.
     F#  D#m
Como tu
          C#       B 
Con tus palabras mágicas
               La#m       B 
Lastiman y vuelven a golpear
     C#
Y a mí me agrada.

d#-------------------------------------------------------|
A#---15-15-15-15-15--------------------------------------|
F#------------------14-14-14-14-16-16-16--16-12-12-12-12-| x3
C#-------------------------------------------------------|
G#-------------------------------------------------------|
D#-------------------------------------------------------|

Y luego tocan esto
d#----------------------------------------|
A#----------------------------------------|
F#----16-16-16-14-14-14-12-12-12-11-11-11-|
C#----------------------------------------|
G#----------------------------------------|
D#----------------------------------------|


F#
No
                D#m
No veas mis ojos no
              C#
No quiero revelar
         B  C#
Mis secretos.

  F#
Y no
            D#m
Ocupo tu piedad
              C#
Ni la de los demás
       B     C#
Solo algo más.

F#   D#m
Y hoy
          C#         B 
Me siento con tanta razón
        La#m          B 
Y tengo toda la intención
    C#
De herir
     F#  D#m
Como tu
          C#       B 
Con tus palabras mágicas
              La#m        B 
Lastiman y vuelven a golpear
     C#
Y a mí me agrada.

F#     D#m
Y es verdad
           C#     B 
Me quieres siempre mal
             La#m    B     C#
Me tratas con la punta del pié

En cambio
F#  D#m
Yo jamás
        C#  B 
Tuve oportunidad
        La#m     B   C#
De comprobar que tu y yo
      F#
Perdición.

weno raza ps ojala les sirva mi partitura/tablatura jajajaja!!!!! no ps ahí dudas, reclamos, felicitaciones fans d panda  les dejo mi correo: tankian_28@hotmail.com
weno ps q viva Panda!!!!!
 

Fuente: tusacordes.com