a b c d e f g h i j k l m n o p q r s t u v w x y z 0-9

Tripulacion, Armar Toboganes

Panda

			


 q onda 
pz aki les djo sta cancion shingona 
ai le va es acustico 



e----------------------33333--11111-----------------------------
b--44444--33333---------------------44444--3333-----------------
g----------------33333---------------------------333333--555555-
D---------------------------------------------------------------
A---------------------------------------------------------------
E---------------------------------------------------------------



e-----------------------------3---3----3---1--------------------
b--4----4---4---3----3-----3------------------------------------
g----3----3-------3-----3-------3----3--------------------------
D---------------------------------------------------------------
A---------------------------------------------------------------
E---------------------------------------------------------------


e-----------------------------3---3----3---1--------------------
b--4----4---4---3----3-----3------------------------------------
g----3----3-------3-----3-------3----3--------------------------
D---------------------------------------------------------------
A---------------------------------------------------------------
E---------------------------------------------------------------



e----------------------33333--11111-----------------------------
b--44444--33333---------------------44444--3333-----------------
g----------------33333---------------------------333333--555555-
D---------------------------------------------------------------
A---------------------------------------------------------------
E---------------------------------------------------------------


e-----------------------------------------1---------------------
b--3---3---3---4---4---4---1----3----3--------------------------
g----3---3-------3---3-------1----3----3------------------------
D---------------------------------------------------------------
A---------------------------------------------------------------
E---------------------------------------------------------------


spero i q le guste 
ta shingona 
bueno ns vms 
si tienen duda 
ste mi correo 
pandaw899@hotmail.com 

t amo eliza 
nnka lo olvides





Fuente: tusacordes.com