a b c d e f g h i j k l m n o p q r s t u v w x y z 0-9

Tripulacion, Armar Toboganes

Panda

			
hola aqui les traigo la de tripulacion armar toboganes
una cancion chida de panda
aqui les va:
ACORDES: MI, SI, DO#M, FA#M, SOL#M Y LA

/-0-0-0-0-0-0---------------4-4-4-4-4-4-4-4-4-4-2-2-2-2-2-2-2-2-2-2----
/-------------4-4-4-4--------------------------------------------------
/--------------------4-4-4-4-------------------------------------------
/----------------------------------------------------------------------
/----------------------------------------------------------------------
/---------------------------------------------------------------------

/-0-0-0-0-0-0----------------------------------------------------------
/-------------4-4-4-4------------------------2-2-2-2-2-2-2-2-2-2-2-2-2-
/--------------------4-4-4-4-4-4-4-4-4-4-4-4---------------------------
/----------------------------------------------------------------------
/----------------------------------------------------------------------
/----------------------------------------------------------------------

aquí viene el piano

/-0----0-----------5--1--5--3--1--
/-- 0------4--5--4----------------
/---------------------------------
/---------------------------------
/---------------------------------
/--------------------------------- x2

luego:
/-0-0-0-0-0-0-0-0-----------------------------------------------------
/----------------4-4-4-4-4-4-4-4-4-4-4--------------------------------
/----------------------------------------4-4-4-4-4-4-4-4-4------------
/---------------------------------------------------------------------
/---------------------------------------------------------------------
/---------------------------------------------------------------------


/----------------------------------------------------------------------
/2-2-2-2-2-2-2-2-2-2-2-2-2-4-4-4-4-4-4-4-4-4-4-4-----------------------
/----------------------------------------------------------------------
/----------------------------------------------------------------------
/----------------------------------------------------------------------
/----------------------------------------------------------------------


/-0-0-0-0-0-0-0-0-----------------------------------------------------
/----------------4-4-4-4-4-4-4-4-4-4-4--------------------------------
/----------------------------------------4-4-4-4-4-4-4-4-4------------
/---------------------------------------------------------------------
/---------------------------------------------------------------------
/---------------------------------------------------------------------


/----------------------------------------------------------------------
/------------------------------0-0-0-0-0-0-0-0-0-0-0-0-----------------
/-1-1-1-1-1-1-1-1-1-1-1-1-1-1-1----------------------------------------
/----------------------------------------------------------------------
/----------------------------------------------------------------------
/---------------------------------------------------------------------- X2

luego
/----------------------------------
/-3---3---3---4---1---3---3---3--4-
/---3---3---3---3---1---3---3---3--
/----------------------------------
/----------------------------------
/----------------------------------



luego buelve el anterior requinto y despues la armonia


/-----------------------------------------
/-----------------------------------------
/-----------------------------------------
/-99999999444444446666666644444444--------
/-77777777222222224444444422222222--------
/-----------------------------------------

luego de esto va:
/-----------------------
/-----------------------
/-----------------------
/-----------------------
/-44-66-7---44-22-4-----
/-22-44-5---22-44-2-----


luego el solo:
/-2-22-x3--4x3--0-0-0--2-22-x3--4x3--7x3---
/------------------------------------------------
/------------------------------------------------
/------------------------------------------------
/------------------------------------------------
/------------------------------------------------



otra vez la armonia y se acabo



para mi sta cancion sta bien
espero q  para ustedes tambien

saludos a todos los q les guste division minuscula y pxndx
y esta cancion va para saber q el amor es una mierda.....por ahora


dudas a mi correo: aldo_2094@hotmail.com

Fuente: tusacordes.com