a b c d e f g h i j k l m n o p q r s t u v w x y z 0-9

Te Invito A Mi Fiesta

Panda

			
                            Te invito a mi fiesta                               


Bateria
                                           
C||--49----------------|------------------|
C||--57----------------|------------------|
C||--57----------------|------------------|
C||--49----------------|------------------|
C||--36----------------|------------------|
C||--38----------------|------------------|


                                                     
|---------------------------------------------------|
|---------------------------------------------------|
|*--------------------------------------------------|
|*--------------------------------------------------|
|---57-57-57-57-57-57-57-57-57-57-57-57-57-57-57-57-|
|------38----38----38----38----38----38----38----38-|


                                                   
---------------------------------------------------|
---------------------------------------------------|
---------------------------------------------------|
---------------------------------------------------|
--57-57-57-57-57-57-57-57-57-57-57-57-577-57-57-57-|
-----38----38----38----38----38----38-----38----38-|


                                                   
---------------------------------------------------|
---------------------------------------------------|
---------------------------------------------------|
---------------------------------------------------|
--57-57-57-57-57-57-57-57-57-57-57-57-577-57-57-57-|
-----38----38----38----38----38----38-----38----38-|


                                                     
----------------------------------------------------||
----------------------------------------------------||
---------------------------------------------------*||
---------------------------------------------------*||
--57-57-57-57-57-57-57-57-57-57-57-57-577-57-57-57--||
-----38----38----38----38----38----38-----38----38--||


                                                    
----------------------------------------------------|
----------------------------------------------------|
*--------------------------------------------------|
*--------------------------------------------------|
---42-42-42-42-42-42-42-42-42-42-42-42-442-42-42-42-|
------38----38----38----38----38----38-----38----38-|


                                                   2x
----------------------------------------------------||
----------------------------------------------------||
---------------------------------------------------*||
---------------------------------------------------*||
--42-42-42-42-42-42-42-42-42-42-42-42-422-42-42-42--||
-----38----38----38----38----38----38-----38----38--||


                                                   
---------------------------------------------------|
---------------------------------------------------|
---------------------------------------------------|
---------------------------------------------------|
--42-42-42-42-42-42-42-42-42-42-42-42-422-42-42-42-|
-----38----38----38----38----38----38-----38----38-|


                                           
--------------------------------------499--|
--------------------------------------577--|
--------------------------------------388--|
--------------------------57--57--57--388--|
--42-42-42-42-42-42-42-42-36--36--36--388--|
-----38----38----38----38-36--36--36--388--|


                                       
----------------57----------------57--|
----------------57----------------57--|
--------------------------------------|
--42------42--------42------42--------|
--------------------------------------|
--36--38--36-36-38--36--38--36-36-38--|


                                                     
----------------57--------------------------------57-|
----------------57--------------------------------57-|
-----------------------------------------------------|
--42------42--------42-------------------------------|
------------------------38---------------------------|
--36--38--36-36-38--36--38--38-38-38-38--38-38-38-38-|


                                                                        
----------------57----------------57--|-----------------57----57----57--|
----------------57----------------57--|-----------------57----57----57--|
--------------------------------------|-----------------------38----38--|
--42------42--------42------42--------|---42------42----------38----38--|
--------------------------------------|-----------------------38----38--|
--36--38--36-36-38--36--38--36-36-38--|---36--38--36-36-38----36----36--|


                                                                              
----------------57----------------57--|-----------------57----------------57--|
----------------57----------------57--|-----------------57----------------57--|
--------------------------------------|---------------------------------------|
--42------42--------42------42--------|---42------42--------42------42--------|
--------------------------------------|---------------------------------------|
--36--38--36-36-38--36--38--36-36-38--|---36--38--36-36-38--36--38--36-36-38--|


                                                                    
----------------57----------------57--|-----------------57----------|
----------------57----------------57--|-----------------57----------|
--------------------------------------|-----------------------------|
--42------42--------42------42--------|---42------42----------------|
--------------------------------------|-----------------------------|
--36--38--36-36-38--36--38--36-36-38--|---36--38--36-36-38----------|


                                                   
---------------------------------------------------|
---------------------------------------------------|
---------------------------------------------------|
---------------------------------------------------|
--57-57-57-57-57-57-57-57-57-57-57-57-577-57-57-57-|
-----38----38----38----38----38----38-----38----38-|


                                                   
---------------------------------------------------|
---------------------------------------------------|
---------------------------------------------------|
---------------------------------------------------|
--57-57-57-57-57-57-57-57-57-57-57-57-577-57-57-57-|
-----38----38----38----38----38----38-----38----38-|


                                                   
---------------------------------------------------|
---------------------------------------------------|
---------------------------------------------------|
---------------------------------------------------|
--57-57-57-57-57-57-57-57-57-57-57-57-577-57-57-57-|
-----38----38----38----38----38----38-----38----38-|


                                                   
---------------------------------------------------|
---------------------------------------------------|
---------------------------------------------------|
---------------------------------------------------|
--57-57-57-57-57-57-57-57-57-57-57-57-577-57-57-57-|
-----38----38----38----38----38----38-----38----38-|


                                                     
|---------------------------------------------------|
|---------------------------------------------------|
|*--------------------------------------------------|
|*--------------------------------------------------|
|---42-42-42-42-42-42-42-42-42-42-42-42-42-42-42-42-|
|------38----38----38----38----38----38----38----38-|


                                                     
----------------------------------------------------||
----------------------------------------------------||
---------------------------------------------------*||
---------------------------------------------------*||
--42-42-42-42-42-42-42-42-42-42-42-42-422-42-42-42--||
-----38----38----38----38----38----38-----38----38--||


                                   
----------------------------------|
----------------------------------|
----------------------------------|
----------------------------------|
--42-42-42-42-42-42-42-42---------|
-----38----38----38----38---------|


                                                   
---------------------------------------------------|
---------------------------------------------------|
---------------------------------------------------|
---------------------------------------------------|
--57-57-57-57-57-57-57-57-57-57-57-57-577-57-57-57-|
-----38----38----38----38----38----38-----38----38-|


                                                   
---------------------------------------------------|
---------------------------------------------------|
---------------------------------------------------|
---------------------------------------------------|
--57-57-57-57-57-57-57-57-57-57-57-57-577-57-57-57-|
-----38----38----38----38----38----38-----38----38-|


                                                   
---------------------------------------------------|
---------------------------------------------------|
---------------------------------------------------|
---------------------------------------------------|
--57-57-57-57-57-57-57-57-57-57-57-57-577-57-57-57-|
-----38----38----38----38----38----38-----38----38-|


                                           
--------------------------------------499--|
--------------------------------------577--|
--------------------------------------388--|
--------------------------57--57--57--388--|
--57-57-57-57-57-57-57-57-36--36--36--388--|
-----38----38----38----38-36--36--36--388--|


                                       
----------------57----------------57--|
----------------57----------------57--|
--------------------------------------|
--42------42--------42------42--------|
--------------------------------------|
--36--38--36-36-38--36--38--36-36-38--|


                                                     
----------------57--------------------------------57-|
----------------57--------------------------------57-|
-----------------------------------------------------|
--42------42--------42-------------------------------|
------------------------38---------------------------|
--36--38--36-36-38--36--38--38-38-38-38--38-38-38-38-|


                                                                        
----------------57----------------57--|-----------------57----57----57--|
----------------57----------------57--|-----------------57----57----57--|
--------------------------------------|-----------------------38----38--|
--42------42--------42------42--------|---42------42----------38----38--|
--------------------------------------|-----------------------38----38--|
--36--38--36-36-38--36--38--36-36-38--|---36--38--36-36-38----36----36--|


                                                                              
----------------57----------------57--|-----------------57----------------57--|
----------------57----------------57--|-----------------57----------------57--|
--------------------------------------|---------------------------------------|
--42------42--------42------42--------|---42------42--------42------42--------|
--------------------------------------|---------------------------------------|
--36--38--36-36-38--36--38--36-36-38--|---36--38--36-36-38--36--38--36-36-38--|


                                                            
----------------57----------------57--|-----------------57--|
----------------57----------------57--|-----------------57--|
--------------------------------------|---------------------|
--42------42--------42------42--------|---42------42--------|
--------------------------------------|-----------------38--|
--36--38--36-36-38--36--38--36-36-38--|---36--38--36-36-----|


                                                                          
|-----------------------------------|-----------------------------------||
|-----------------------------------|-----------------------------------||
|*--42--42--42--42--42--42--42--42--|--42--42--42--42--42--42--42--42--*||
|*--36--36--36--36--36--36--36--36--|--36--36--36--36--36--36--36--36--*||
|---36--36--36--36--36--36--36--36--|--36--36--36--36--36--36--36--36---||
|-----------------------------------|-----------------------------------||


                                                                  
--------------------------------|---------------------------------|
--------------------------------|---------------------------------|
--36----------------------------|---------------------------------|
--49----------------------------|--49-----------------------------|
--57--36------------------------|--57--336------------------------|
--36--36--38----50-50-50--38----|--36--336--38----50-50-50--38----|


                                                                
--------------------------------|-------------------------------|
--------------------------------|-------------------------------|
--------------------------------|-------------------------------|
--49----------------------------|--49-------------------38--38--|
--57--36------------------------|--57--336--------36----38--38--|
--36--36--38----50-50-50--38----|--36--336--38----36----38--38--|


                                       
----------------57----------------57--|
----------------57----------------57--|
--------------------------------------|
--42------42--------42------42--------|
--------------------------------------|
--36--38--36-36-38--36--38--36-36-38--|


                                                     
------57--------57--------------------------------57-|
----------------57--------------------------------57-|
-----------------------------------------------------|
--42------42--------42-------------------------------|
------------------------38---------------------------|
--36--38--36-36-38--36--38--38-38-38-38--38-38-38-38-|


                                                                        
------57--------57------57--------57--|-------57--------57----57----57--|
----------------57----------------57--|-----------------57----57----57--|
--------------------------------------|-----------------------38----38--|
--42------42--------42------42--------|---42------42----------38----38--|
--------------------------------------|-----------------------38----38--|
--36--38--36-36-38--36--38--36-36-38--|---36--38--36-36-38----36----36--|


                                                                              
----------------57----------------57--|-----------------57----------------57--|
----------------57----------------57--|-----------------57----------------57--|
--------------------------------------|---------------------------------------|
--42------42--------42------42--------|---42------42--------42------42--------|
--------------------------------------|---------------------------------------|
--36--38--36-36-38--36--38--36-36-38--|---36--38--36-36-38--36--38--36-36-38--|


                                                                                
----------------57----------------57--|-----------------57--------57--------57--|
----------------57----------------57--|-----------------57--------57--------57--|
--------------------------------------|---------------------------38--------38--|
--42------42--------42------42--------|---42------42--------------38--------38--|
--------------------------------------|---------------------------38--------38--|
--36--38--36-36-38--36--38--36-36-38--|---36--38--36-36-38--36-36-36--36-36-36--|


                                  
--------57--------57--------57--||
--------57--------57--------57--||
--------38--------38--------38--||
--------38--------38--------38--||
--------38--------38--------38--||
--36-36-38--36-36-38--------38--||Fuente: Tus acordes