a b c d e f g h i j k l m n o p q r s t u v w x y z 0-9

Sweater Geek

Panda

			
Esta rola esta p.k.m, y esta muy sencilla.
Le mando saludos A German del DM, ese wey es mi brother,
Al pollo, y a todos akellos kabrones ke escuchan PANDA Y ke les late...

Y Ps esta es mi segunda transcripcion, espero ke este correcta
y ke les guste mucho kabrones, y si no ps cambienle.

Intro (0:00seg - 0:17seg)
e|------------------0-----|
B|----3----3---3---3-3----|
G|---0----0---0-----------| x6
D|--0----0---0---0--------|
A|------2---3-------------|
E|3-----------------------|

...Solo tu molestas... (0:17seg - 0:40seg)
token cada nota y dejenla sonar
e|-3----2------3----2----|
B|-3----3------3----3----|
G|-0----2------0----2----| x4
D|-0-----------2---------|
A|-2-----------3---------|
E|-3---------------------|

...Lo comprare... (0:40seg - 1:02seg)
Aki si tokenla con rasgueo
e|-3333----222------3333----222-|
B|-3222----333------333-----333-|
G|-000-----222------00------222-| x4
D|-00---------------22----------|
A|-22---------------3-----------|
E|-3----------------------------|

...Hey tu mirame a mi... (1:02seg - 1:14seg)
e|------------------0----|
B|----3----3---3---3-3---|
G|---0----0---0----------| x4
D|--0----0---0---0-------|
A|------2---3------------|
E|3----------------------|

...Ya no te vistas asi... (1:14seg - 1:25seg)
e|-3333----222------3333----222-|
B|-3222----333------333-----333-|
G|-000-----222------00------222-| x4
D|-00---------------22----------|
A|-22---------------3-----------|
E|-3----------------------------|

...Come on... (1:26seg - 1:36seg)
e|-----------------2-----|
B|----5----5---5--5-5----|
G|---2----2---2----------| x4
D|--2----2---0---2-------|
A|-0----4----------------|
E|-----------------------|

...Me separeeee de ti... (1:37seg - 1:59seg)
e|-3333----222------3333----222-|
B|-3222----333------333-----333-|
G|-000-----222------00------222-| x4
D|-00---------------22----------|
A|-22---------------3-----------|
E|-3----------------------------|

...Hey tu mirame a mi... (2:00seg - 2:21seg)
e|-0---4---2---4---------|
B|-2---5---3---5---------|
G|-2---4---2---4---------| x4
D|-2---------------------|
A|-0---------------------|
E|-----------------------|

(2:21seg - 2:28seg)
e|-|||--|||...go...------------------|
B|-|||--|||-|------------------------|
G|-|||--|||-|------------------------|
D|-|||--|||-|--4-6-7-6---------------|
A|-|||--|||-|--2-4-5-4--2-2-4-4-4-4--|
E|-|||--|||-|-----------0-0-2-2-2-2--|

(2:28seg - 2:36seg)
e|-------------------------------------------------|
B|-------------------------------------------------|
G|-------------------------------------------------|
D|-4-6-7-6--4-6-7-6---------------4-6-7-6--4-6-7-6-|
A|-2-4-5-4--2-4-5-4--2-2-4-4-4-4--2-4-5-4--2-4-5-4-|
E|-------------------0-0-2-2-2-2-------------------|

...Me separe de tiiii... (2:36seg - 2:58seg)
e|----------------------------------------|
B|----------------------------------------|
G|----------------------------------------|
D|2-2-2-2-------------7-7-7-7--9-9-9-9----| x4
A|0-0-0-0--2-2-2-2-2--5-5-5-5--7-7-7-7----|
E|---------0-0-0-0-0-----------0-0-0-0----|

...Ahora vuelves aki... (2:59seg - 3:05seg)
e|-5---4---2---4----------|
B|-5---5---3---5----------|
G|-2---4---2---4----------|
D|-2----------------------|
A|-0----------------------|
E|------------------------|

...Sabia ke volverias a mi... (3:05seg - 3:41seg)
e|-555---444---222---444------|
B|-555---555---333---555------|
G|-222---444---222---444------| x5
D|-222------------------------|
A|-00-------------------------|
E|----------------------------|

Eso es todo, espero ya la hallan sakado chingon, si no
ps chinguense mas tiempo...Fuente: Tus acordes