a b c d e f g h i j k l m n o p q r s t u v w x y z 0-9

Solo A Terceros

Panda

			
esta es la nueva canción de panda de su disco que sale el 22 de septiembre y espero que les guste poetics 




e--------------------------------
B------0-----0---------0-----0---
G----0-----0-----0---0-----0----0
D--2-----2-----2---1-----1----1--
A--------------------------------
E--------------------------------

e-----------------------0------0-
B------0-----0--------0---0----0-
G----0-----0----0---0-------0--0-
D--0-----0----0----------------2-
A-----------------4--------------
E--------------------------------

e---------------------
B---------------------
G-4-44444444444-------
D-4-44444444444-------
A-2-22222222222-------
E---------------------

VERSOS

e---00--------------------
B-4/00--------------------
G-4----111111-------------
D-------------4444444-----
A-------------------------
E-------------------------


e---00--------------------
B-4/00--------------------
G-4----111111-------------
D-------------1111222-----
A-------------------------
E-------------------------

e---00--------------------
B-4/00--------------------
G-4----111111-------------
D-------------4444444-----
A-------------------------
E-------------------------


e---00--------------------
B-4/00--------------------
G-4----111111-------------
D-------------1111222-----
A-------------------------
E-------------------------


e---00--------------------
B-4/00--------------------
G-4----111111-------------
D-------------4444444-----
A-------------------------
E-------------------------


e---00--------------------
B-4/00--------------------
G-4----111111-------------
D-------------1111222-----
A-------------------------
E-------------------------

e---00--------------------
B-4/00--------------------
G-4----111111-------------
D-------------4444444-----
A-------------------------
E-------------------------


e---00--------------------
B-4/00------------000-----
G-4----111111-------------
D-------------1111222-----
A-------------------------
E-------------------------

PRE CORO PALM MUTE X 4

e---0---0--0---0---0-------
B--2---2------0---0---0----
G-2---2---2--1---1---1-----
D--------------------------
A--------------------------
E--------------------------

e-----2-----2---2------4-----4-----
B-0-4---0-4---0----0-4---0-4---0-4-
G----------------------------------
D----------------------------------
A----------------------------------
E----------------------------------

CORO        X  6

   C# E  A
e--------------------------------
B--------------------------------
G--66-99-22-22-22----------------
D--66-99-22-22-22----------------
A--44-77-00-00-00----------------
E--------------------------------


SOLO
parte 1  cuatro veces
e-/7-7-7---4-2-2/1/0-----------0-0-----0-0/2--
B--------7-----------4/3/2/1/0-----4-4--------
G---------------------------------------------
D---------------------------------------------
A---------------------------------------------
E---------------------------------------------
  parte 2 dos veces
e-55555555------------------22244222---------44444400---------22222222-0-
B----------55555555-44444444---------22222222---------00000000-----------
G------------------------------------------------------------------------
D------------------------------------------------------------------------
A------------------------------------------------------------------------
E------------------------------------------------------------------------


DESPUES DEL SOLO SE REPITE EL CORO X 8 Y TERMINA CON

e---00--------------------
B-4/00--------------------
G-4----111111-------------
D-------------4444444-----
A-------------------------
E-------------------------


e---00--------------------
B-4/00--------------------
G-4----111111-------------
D-------------1111222-----
A-------------------------
E-------------------------

e---00--------------------
B-4/00--------------------
G-4----111111-------------
D-------------4444444-----
A-------------------------
E-------------------------


e---00--------------------
B-4/00--------------------
G-4----111111-------------
D-------------1111222-----
A-------------------------
E-------------------------

e---00--------------------
B-4/00--------------------
G-4----111111-------------
D-------------4444444-----
A-------------------------
E-------------------------


arriba pxndx si les gusta ponganle 10

Fuente: tusacordes.com