a b c d e f g h i j k l m n o p q r s t u v w x y z 0-9

Si Supieras

Panda

			
INTRO : 

G------------------------------------------
D------------------------------------------
A---------------------44444444-66666666----
E-1/44444444-66666666----------------------

cada riff se toca 2 veces cada uno.

g----------------------------------------------------
d----------------------------------------------------
a|---------------------------------------------------| Riff 1
e|-5-5-5-5-7-7-5-5-5-5-7-7-9-9-9-9-9-7-9-10-9-7------|


g----------------------------------------------------
d----------------------------------------------------
a|5-5-5-5-7-7-5-5-5-5-7-7-9-9-9-9-9-7-9-10-9-7-5-----| Riff 2
e|---------------------------------------------------|


VERSO: SI SUPIERAS como te ves, si supieras
G-----------------------------------------
D-----------------------------------------
A--------------------44444444-66666666----
E-44444444-66666666------------------------

*CORO 

Y SIEMPRE HE SIDO, SIEMPRE HE SIDO ABURRIDO

G---------------------------------------------------
D---------------------------------------------------
A-------6666--------4444----------------------------
E-4444--------6666----------------------------------

2 VECES OTRA VEZ

g----------------------------------------------------
d----------------------------------------------------
a|---------------------------------------------------| Riff 1
e|-5-5-5-5-7-7-5-5-5-5-7-7-9-9-9-9-9-7-9-10-9-7------|


Empiezan de nuevos los versos

VERSO: SI SUPIERAS mis secretos , si supieras
G-----------------------------------------
D-----------------------------------------
A--------------------44444444-66666666----
E-44444444-66666666------------------------

CORO:

Y siempre he sido, siempre he sido aburrido
G--------------------------------
D--------------------------------
A-----6666-----4444--------------
E-4444----6666-------------------

Aqui se tranquiliza la cancion y lo que toca 
el bajo con la bataca es esto:

G-----------------------------------------
D-----------------------------------------
A--------------------44444444-66666666----
E-1h44444444-66666666---------------------


Y despúes se toca esto:

Y siempre he sido
a|-------|  
e|4-4----|  

siempre he sido aburrido   
a|6-6----|
e|-------|

despues de que dice aburrido hay un slide

a|-----------|
e|-12/1------|

CORO
G-----------------------------------
D-----------------------------------
A----------6666--------4444---------
E----4444--------6666---------------

Y asi termina esta fabulosa cancion de panda,
ahi esta mi correo para lo que les ofrezca respecto a
la cancion.
Eso es todo y esta 100 correcta solo chequenla bienFuente: Tus acordes