a b c d e f g h i j k l m n o p q r s t u v w x y z 0-9

Señor Payaso

Panda

			
NOTA: Este es el tab completo i 100 correcto
x q tiene lo q tokan las 2 guitarras!

Intro:
0:00 guitarra 1
E----------------------------------|
B----------------------------------|
G--88-------------1010-------------|
D--88-55-66-55-88-1010-------------|x5
A--66-55-66-55-88--8-8-------------|
E-----33-44-33-66------------------|

entra laotra guitarra junto con la bateria i tok sto:
0:03 guitarra 2
E-------------------------------|
B-------------------------------|
G--1212-1010--88---8810--88-1010|
D---x-x--x-x--xx---xx-x--xx--x-x|x4
A--1010--8-8--66---66-8--66--8-8|
E-------------------------------|

Verso
0:15 Parece suficiente...
E------------------------------------------
B------------------------------------------
G-888-888----------------------------------
D-888-888-888-888-101010-101010-888-888----
A-666-666-888-888-101010-101010-888-888----
E---------666-666--8-8-8--8-8-8-666-666----
  ..  ..  ..  ..   . .    . .   ..  ..
E-----------------------------------------------
B-----------------------------------------------
G-888-888---------------------------------------
D-888-888-888-888-101010-101010-----------------
A-666-666-888-888-101010-101010---------8h9-8/6-
E---------666-666--8-8-8--8-8-8-6/8-6/8---------
  ..  ..  ..  ..   . .    . .

0:27 guitarra 1 ..parece suficiente
E------------------------------------
B------------------------------------
G-888888-----------------------------
D-888888-888888-101010101010-888888--x2
A-666666-888888-101010101010-888888--
E--------666666--8-8-8-8-8-8-666666--

0:27 guitarra 2
E-----------------------------------|
B-----------------------------------|
G--8888-10101010-12121212-10101010--|
D--xxxx--x-x-x-x--x-x-x-x--x-x-x-x--|x2
A--6666--8-8-8-8-10101010--8-8-8-8--|
E-----------------------------------|

0:39 guitarra 1
E---------------------------------------
B---------------------------------------
G---------------------------------------
D--66666666--88888888--888-888----------
A--66666666--88888888--888-888----------
E--44444444--66666666--666-666----------

0:39 guitarra 2
E---------------------------------------------------|
B---------------------------------------------------|
G--8888888888888888/1010101010101010/121212--121212-|
D--xxxxxxxxxxxxxxxx/-x-x-x-x-x-x-x-x/-x-x-x---x-x-x-|x2
A--6666666666666666/-8-8-8-8-8-8-8-8/101010--101010-|
E---------------------------------------------------|

Coro
0:44guitarra1 Tengo poderes soy el rey
E------------------------------------------|
B------------------------------------------|
G--8-888888--------------------------------|
D--8-888888-5-555555-6-666666-8-888888-----|
A--6-666666-5-555555-6-666666-8-888888-----|
E-----------3-333333-4-444444-6-666666-----|
                                           | x2
E------------------------------------------|
B------------------------------------------|
G------------------------------------------|
D--5-555555-5-555555-6-6666666-8-888888----|
A--5-555555-5-555555-6-6666666-8-888888----|
E--3-333333-3-333333-4-4444444-6-666666----|

0:44 guitarra 2
E--------------------------------|                   |
B--------------------------------|                   |
G--1212121212121212-8888-10101010|                   |
D---x-x-x-x-x-x-x-x-xxxx--x-x-x-x|                   |
A--1010101010101010-6666--8-8-8-8|                   |
E--------------------------------|                   |
                                                     |x2
E--------------------------------------------------| |
B--------------------------------------------------| |
G-1212-121212-121212-121212-12-88-888-8-1010-101010| |
D--x-x--x-x-x--x-x-x--x-x-x--x-xx-xxx-x--x-x--x-x-x| |
A-1010-101010-101010-101010-10-66-666-6--8-8--8-8-8| |
E--------------------------------------------------| |

se repite el intro, el verso i el coro

Final:
2:15 guitarra1 siempre sabes que..
E----------------------------------------------  ----
B----------------------------------------------  ----
G-888888888-------------55555555---------------  ----
D-888888888--555555555--55555555--66666-88888--x4-6~~
A-666666666--555555555--33333333--66666-88888--  -6~~
E------------333333333------------44444-66666--  -4~~

2:15 guitarra2
E---------------------------------------------------------|  ----
B---------------------------------------------------------|  ----
G-1212121212121212-88888888-1010101010101010-8888-10101010|  -8~~
D--x-x-x-x-x-x-x-x-xxxxxxxx--x-x-x-x-x-x-x-x-xxxx--x-x-x-x|x4-x~~
A-1010101010101010-66666666--8-8-8-8-8-8-8-8-6666--8-8-8-8|  -6~~
E---------------------------------------------------------|  ----Fuente: Tus acordes