a b c d e f g h i j k l m n o p q r s t u v w x y z 0-9

Sólo A Terceros

Panda

			
aqui de toluca dejando un rolon de panda espero y les guste la sake al
puro oido y los arreglos esta correctos solamente es cuestion de q
agarren bien el ritmo y los tiempos y asi sale
esta muy facil

Afinacion: EADG

Intro: empiesa cuando entra la bateria y todo

"Tal ves no sucedio...."
G)-------------------------------------
D)-------------------------------------
A)---------------4-4-4-----------------
E)0-0-0--44444444------44444444--------
                                          x2

G)--------------------------------------
D)--------------------------------------
A)----------------4-4-4-222222----------
E)0-0-0--44444444-----------------------

aqui es el cambio de ritmo

"Es tu secundario inico la funcion...."

G)-------------------------------------
D)-------------------------------------
A)---------------222222--44-77---------
E)555555-0000000---------------7-------

"De este drama sexual.........."

G)------------------------------------
D)------------------------------------
A)-----------------22222222-----------
E)55555555-00000000-------------------

"Valdra la pena......."

G)-----------------------------------
D)-----------------------------------
A)------------------22222222--44-77--
E)55555555-000000000----------------7


"ven a contarmelo....."

G)-----------------------------------
D)-----------------------------------
A)------------------22222222---------
E)55555555-000000000---------4/1-----

"Que quiero escucharlo...."

G)--------------
D)--------------
A)44-77---------   x3
E)-----55-55-5-5


G)--------------
D)--------------
A)44-77---------
E)-----77-77-7-7

"Quiero escucharlo..."

G)--------------
D)--------------
A)44-77---------   x3
E)-----55-55-5-5

"Pero solo a terceros..."

G)---------------
D)---------------
A)---------------
E)77-77-77-77-7-7

Intermedio:

G)-------------------------------------
D)-------------------------------------
A)---------------4-4-4-----------------
E)0-0-0--44444444------44444444--------

"Como se sintio...."

G)-------------------------------------
D)-------------------------------------
A)---------------4-4-4-----------------
E)0-0-0--44444444------44444444--------
                                          x2

G)--------------------------------------
D)--------------------------------------
A)----------------4-4-4-222222----------
E)0-0-0--44444444-----------------------

" Y aunque nunk te alejaste ....."

G)-------------------------------------
D)-------------------------------------
A)---------------222222--44-77---------
E)555555-0000000---------------7-------

" Que cometas fraude a mi amor...."
""
G)------------------------------------
D)------------------------------------
A)-----------------22222222-----------
E)55555555-00000000-------------------

"Y ahora comprendo......."

G)-------------------------------------
D)-------------------------------------
A)---------------222222--44-77---------
E)555555-0000000---------------7-------

"Ven a explicarselo....."

G)-----------------------------------
D)-----------------------------------
A)------------------22222222---------
E)55555555-000000000---------4/1-----

"Que quiero escucharlo.."

G)--------------
D)--------------
A)44-77---------   x3
E)-----55-55-5-5


G)--------------
D)--------------
A)44-77---------
E)-----77-77-7-7

"Quiero escucharlo..."

G)--------------
D)--------------
A)44-77---------   x3
E)-----55-55-5-5

G)--------------
D)--------------
A)--------------
E)77-77-77-77-7-7

esto es el solo de guitarra y teclado:

G)----------------
D)----------------  x6
A)-7777-----------
E)------444444----

"No me arrepiento..."

G)--------------------------------------
D)--------------------------------------
A)---------------222222-22/4-4/77-7/2---
E)--555555-000000-----------------------

"Y has ta tu forma...."

G)-------------------------------
D)-------------------------------
A)------------------22222222-----
E)55555555-000000000-------------

"Y la amargura..."

G)-------------------------------
D)-------------------------------
A)-------------------------------
E)-555555-5/12-------------------

"Y simpre presente yo..."

G)-------------------------------
D)-------------------------------
A)-22/4-4/77-7/2-----------2-----
E)---------------5---0-----------

"Y quiero escucharlo........"

G)--------------
D)--------------
A)44-77---------   x3
E)-----55-55-5-5


G)--------------
D)--------------
A)44-77---------
E)-----77-77-7-7

"Quiero escucharlo...."

G)--------------
D)--------------
A)44-77---------   x3
E)-----55-55-5-5

G)--------------
D)--------------
A)--------------
E)77-77-77-77-7-7

Final:

G)-------------------------------------
D)-------------------------------------
A)---------------4-4-4-----------------
E)0-0-0--44444444------44444444--------


G)--------------------------------------
D)--------------------------------------
A)----------------4-4-4-222222----------
E)0-0-0--44444444-----------------------

asi asta el final de la rola


sale pues espero y les guste cualquier duda a mi correo
y dedikda pa toda la banda seguidora de panda para mis compas ramiro
emmerick y los demas pero en especial a brenda
brenda esto es para ti sin ti no podria hacer esto te amo atte: david
a y pa todos de prepa 3 jejejeFuente: Tus acordes