a b c d e f g h i j k l m n o p q r s t u v w x y z 0-9

Romance En Re Sostenido

Panda

			
este es el solo de romance en re sostenido 
lo saque desde hace mucho tiempo, pero hasta ahora vengo a ponerlo
afinacion: standar 
cheken los tiempos 
minuto 2:30
---------------------------------------
-16NH----------------------------------
------15NH--------------------13-15bNH-
------------13-13-13-15-15-17----------
---------------------------------------
---------------------------------------

minuto 2:35
---------------------------------------------------
---------------------------------------------------
---------------------------------------------------
-13h15-13------------------------13h5-13-----------
-13----13-----------------13-13--13---13-----------
-----------13-13--15--15---------------------------

minuto 2:38                   minuto 2:40
-11-11-11-11/13-11I-va rapido------------------------
------------------I------------13-15-16-x4rapido----
------------------I----------------------------------
------------------I----------------------------------
------------------I----------------------------------
------------------I----------------------------------
rapido  
-----------------------15-13-11-x4rapido---
-16-15-14-x4rapido-------------------------
---------------------------------------------
---------------------------------------------
---------------------------------------------
---------------------------------------------

cheken los tiempos minuto 2:44
---------------------------------------------
-15b-----------------------------------------
------12h13p12--15---12h13p12----------------
------------------------------14-------------
---------------------------------------------
---------------------------------------------

cheken los tiempos minuto 2:48
----------------------------------------------
-15h16----16----16----16----16----------------
-------17----15-------------------------------
-------------------17----15-----13-15-15b-13--
----------------------------------------------
----------------------------------------------Fuente: Tus acordes