a b c d e f g h i j k l m n o p q r s t u v w x y z 0-9

Reina De Uxmal

Panda

			
Intro

los acordes la pueden tocar con un capo traste en el primer traste.
Solo son cuatro acordes: D, Bm, G, A

e----------------------------------------------|
B----------------------------------------------|
G--------1-------------------------------------| x8
D-----3-----3----------------------------------|
A--4-------------------------------------------|
E----------------------------------------------|

I VERSO

e---------------------------------------------|
B---------------------------------------------|
G---------------------------------------------| x4
D-----3-4-3-----------------------------------|
A--1------------------------------------------|
E---------------------------------------------|

Fuente: Tusacordes