a b c d e f g h i j k l m n o p q r s t u v w x y z 0-9

Quinta Real (unplugged)

Panda

G
Em
D
C
Am
E
			
Esta es la version unplugged hecha para dos guitarras la mayoria de la cancion, arturo toca lo mismo.

Intro Arturo
e|-------------------||
B|------3-----3------||
G|----4-----4-----4--||x4
D|--5-----5-----5----||
A|-------------------||
E|-------------------||


 G                           Em    D
  Creo que el cielo no escuchaba, no

 G                   Em       D       
  Cuando gritabas mi nombre, con razón

 C                 Am   D
  Mi mano derecha odia con rencor

 C                      D                      
  A la izquierda pues cualquiera comete un error



 G                      Em       D
  Deja me ser yo el que hable, por favor

 G                  Em     D
  Como quiera tu te robas la atención

 C                  Am     D
  Trata de ya no creer en cosas que no tienen valor

 C                  D
  Recomiendo olvidarlo, se siente mejor





 C                   G
  A nadie le interesa tu drama 170

 C                       G                        
  Sécate los ojos ya no tengo cosas de amor que decir

 C                         G
  Fíjate no estoy dispuesto a desperdiciar este momento

 C                      D                  G
  Llórame mas y compondré una canción de amor


Arturo
e|--7--8-7--8-12-12-10-10--7--8-7--8-12-12-10--||
B|--8-10-8-10-13-13-12-12--8-10-8-10-13-13-12--||
G|---------------------------------------------||
D|---------------------------------------------||
A|---------------------------------------------||
E|---------------------------------------------||


e|--7--8-7--8-12-12-10-10--7--8-7--8-12-12-10-10--7--||
B|--8-10-8-10-13-13-12-12--8-10-8-10-13-13-12-12--8--||
G|---------------------------------------------------||
D|---------------------------------------------------||
A|---------------------------------------------------||
E|---------------------------------------------------||



e|-----------------||
B|----3----3-------||Desgraciadamente somos tan explícitos
G|---4----4----4---||Reclamamos los defectos de nosotros mismos
D|--5----5----5----||Reflejamos todo aquello que nos causo dolor
A|-----------------||Es por eso que detengo por ti mi afición
E|-----------------||



 G                  Em    D
  Ignoramentemente somos tan artísticos

 G                   Em    D
  Que mentimos inclusive cuando dormimos

 C               Am    D     
  ¿De donde sacaremos tanta imaginación?

 C                     D
  Es por eso que detengo este seducción



 C                       G
  Esta es la única manera de tomarte a la ligera

 C                                 G
  Se que no es la forma y cicatrices Vas a tener que borrar

 C                            G
  Mientras yo estaré tramando, calma estoy documentando

 C                       D                     G
  Todo va bien, viento en popa la canción de amor



    C     D     E
e|-----|-----|-----||
B|--5--|--7--|--9--||
G|--x--|--x--|--x--||
D|--x--|--x--|--x--||
A|--3--|--5--|--8--||
E|-----|-----|-----||


[Esta parte es con los acordes de arriba]

 C                           E   D
  Para ya, seca tus lagrimas, no se que decir

 C                              E  D
  Se que pude haber sido gentil, o un poco sutil

 C                      E D
  Para ya, nada sentirás, no digas mas

 C                   E   D
  No te quiero lastimar, no

 
[Aqui van los acordes normales]

 C                           G   D
  Para ya, seca tus lagrimas, no se que decir

 C                              G  D
  Se que pude haber sido gentil, o un poco sutil

 C                      G D
  Para ya, nada sentirás, no digas mas

 C                   G   D
  No te quiero lastimar, no digas más




 C G   D          C
  Nooooo digas mas,

     G     D
  no nooo, no digas más. 

 C G   D          C
  nooooo digas mas, 

     G                 D            C
  no te quiero lastimar no digas mas

Fuente: Tusacordes