a b c d e f g h i j k l m n o p q r s t u v w x y z 0-9

Promesas, Decepciones

Panda

			
Intro
Guitarra 1
eb|-------------------------------------------------------------------|
Bb|-------------------------------------------------------------------|
Gb|-------------------------------------------------------------------|
Db|-3----3----3----3----3----3----3----3----3----3----3----3----------|
Ab|-5-55-5-55-5-5--5-55-5-55-5-5--5-55-5-55-5-5--5-55-5-55-5-5--------|
Eb|-------------------------------------------------------------------|
                               Guitarra 2 kon distorsion
eb|----------------------------|--------------------------------------|
Bb|----------------------------|--------------------------------------|
Gb|----------------------------|--------------------------------------|
Db|---------3-------------3----|--------8--------8--------10-------10-|
Ab|-5--5-55-5-5---5--5-55-5-5--|--8-8-8-8--8-8-8-8--7-7-7-7--7-7-7-7--|
Eb|-3--3----------3--3---------|--6-6-6-6--6-6-6-6--8-8-8-8--8-8-8-8--|

Verso
Guitarra 1
eb|------------------------------------------------------------|
Bb|------------------------------------------------------------|
Gb|------10----10-----10----10-------10-----10-----10-----10---|
Db|--------------------------------12-----12-----12-----12-----|
Ab|---12-----12-----12----12-----------------------------------|
Eb|-10-----10-----10----10-------10-----10-----10-----10-------|

Guitarra 2 ahogado
eb|----------------------------------------------------------------|
Bb|----------------------------------------------------------------|
Gb|----------------------------------------------------------------|
Db|-8-8888-88-8-8--8-8888-88-8-8-----------------------------------|
Ab|-8-8888-88-8-8--8-8888-88-8-8--7-7777-77-7-7--7-7777-77-7-7-----|
Eb|-6-6666-66-6-6--6-6666-66-6-6--8-8888-88-8-8--8-8888-88-8-8-----|

Ambas guitarras
eb|------------------------------------------------|
Bb|------------------------------------------------|
Gb|------------------------------------------------|
Db|----------8---------8----------10--------10-----|
Ab|----8-8-8-8---8-8-8-8----7-7-7-7---7-7-7-7------|
Eb|----6-6-6-6---6-6-6-6----8-8-8-8---8-8-8-8------|

Precoro
Guitarra 1
eb|-1010101010101010-12121212/1313131313-1515151515151515-15/17-15-|
Bb|----------------------------------------------------------------|
Gb|----------------------------------------------------------------|
Db|----------------------------------------------------------------|
Ab|----------------------------------------------------------------| x3

Guitarra 2
eb|-------------------------------------------------------|
Bb|-------------------------------------------------------|
Gb|-------------------------------------------------------|
Db|-8888888888888888--10101010101010101010101010101010----|
Ab|-8888888888888888--7-7-7-7-7-7-7-7-7-7-7-7-7-7-7-7-----|
Eb|-6666666666666666--8-8-8-8-8-8-8-8-8-8-8-8-8-8-8-8-----| x3

Ambas guitarras
eb|------------------------------------------------|
Bb|------------------------------------------------|
Gb|------------------------------------------------|
Db|----------8---------8----------10--------10-----|
Ab|----8-8-8-8---8-8-8-8----7-7-7-7---7-7-7-7------|
Eb|----6-6-6-6---6-6-6-6----8-8-8-8---8-8-8-8------|

Coro
Ambas guitarras
eb|--------------------------------------------------------|
Bb|--------------------------------------------------------|
Gb|-1010101010101010-55555555-77777777-9-9-9-9--11111111---|
Db|-7-7-7-7-7-7-7-7--55555555-55555555-10101010-8-8-8-8----|
Ab|-8-8-8-8-8-8-8-8--33333333-55555555-7-7-7-7--9-9-9-9----|
Eb|--------------------------------------------------------| x2

Preverso
Guitarra 1
eb|----------------------------------------------------------|
Bb|----------------------------------------------------------|
Gb|----------------------------------------------------------|
Db|----------------------------------------------------------| x2
Ab|-9-9999-9-9999-9-9999-9-9999--6-6666-6-6666-6-6666-6-6666-|
Eb|----------------------------------------------------------|

Guitarra 2
eb|-----------------------------------------|
Bb|-----------------------------------------|
Gb|----10~--9/5-5/7~--9/10~--12~--12/14~----|
Db|-----------------------------------------|
Ab|----8 ~--7/3-3/5~--7/8 ~--10~--10/12~----|
Eb|-----------------------------------------|

Verso
Guitarra 1
eb|------------------------------------------------------------|
Bb|------------------------------------------------------------|
Gb|------10----10-----10----10-------10-----10-----10-----10---|
Db|--------------------------------12-----12-----12-----12-----|
Ab|---12-----12-----12----12-----------------------------------|
Eb|-10-----10-----10----10-------10-----10-----10-----10-------|

eb|---------------------------------------------------|
Bb|---------------------------------------------------|
Gb|-----9-----9-----9-----9------9-----9-----9-----9--|
Db|----------------------------10----10----10----10---|
Ab|--10----10----10----10-----------------------------|
Eb|-8-----8-----8-----8------8-----8-----8-----8------|

eb|------------------------------------------------------------|
Bb|------------------------------------------------------------|
Gb|------10----10-----10----10-------10-----10-----10-----10---|
Db|--------------------------------12-----12-----12-----12-----|
Ab|---12-----12-----12----12-----------------------------------|
Eb|-10-----10-----10----10-------10-----10-----10-----10-------|
Ambas guitarras
eb|------------------------------------------------|
Bb|------------------------------------------------|
Gb|------------------------------------------------|
Db|----------8---------8----------10--------10-----|
Ab|----8-8-8-8---8-8-8-8----7-7-7-7---7-7-7-7------|
Eb|----6-6-6-6---6-6-6-6----8-8-8-8---8-8-8-8------|

Precoro
Verso

Puente 1
eb|-----------------------------------------------------------|
Bb|-----------------------------------------------------------|
Gb|-----------------------------------------------------------|
Db|-----------------------------------------------------------|
Ab|-9-9999-9-9999-9-9999-9-9999---6-6666-6-6666-6-6666-6-6666-| x2
Eb|-----------------------------------------------------------|

Puente 2
Guitarra 1
eb|-----------------------------------------------------------|
Bb|-----------------------------------------------------------|
Gb|-9/10--10-10-10-10-10-10--10-5--5/7--7-7-7-7-7-7--7/9-7-9--|
Db|-------x--x--x--x--x--x--------------x-x-x-x-x-x-----------|
Ab|-7/8---8--8--8--8--8--8----8-3--3/5--5-5-5-5-5-5--5/7-5-7--| x4
Eb|-----------------------------------------------------------|

Guitarra 2
eb|----------------------------------------------|
Bb|----------------------------------------------|
Gb|-1010-1010-1010-1010--10-5--77-77-77-77--9-9--|
Db|-1010-1010-1010-1010--10-5--77-77-77-77--9-9--|
Ab|-8-8--8-8--8-8--8-8---8--3--55-55-55-55--7-7--|  x4
Eb|----------------------------------------------|

Coro final

Fuente: Tusacordes