a b c d e f g h i j k l m n o p q r s t u v w x y z 0-9

Procedimientos Para Llegar A Un Comun Acuerdo

Panda

			
F#||--------------------------------------|
C#||---7----7---7--7------3---3---3--3----|
G#||--------------------------------------|
D#||--5--55---5--55----1--11---1--11------|


F#||--------------------------------------|
C#||---7----7---7--7------3---3-----------|
G#||--------------------------------------|
D#||--5--55---5--55----1--11---1--88888---|


F#||------------------------------------------------------------|
C#||------------------------------------------------------------|
G#||--------------333333333333----------------------------------| x2
D#||-111111111111---------------111111111111----555555---333333-|


F#||--------------------------------------|
C#||---7----7---7--7------3---3---3--3----|
G#||--------------------------------------| x3
D#||--5--55---5--55----1--11---1--11------|


F#||--------------------------------------|
C#||---7----7---7--7------3---3-----------|
G#||--------------------------------------|
D#||--5--55---5--55----1--11---1--88888---|


F#||------------------------------------------------------------|
C#||------------------------------------------------------------|
G#||--------------333333333333----------------------------------| x2
D#||-111111111111---------------111111111111----555555---333333-|

SOLO:

F#||----------------------|
C#||----------------------|
G#||--3-------------------|x2
D#||-------3-0---1--------|


F#||--------------------------------------------------------------------|
C#||--------------------------------------------------------------------|
G#||-33333333----------------------33333333-----------------------------|x2
D#||---------333-00000000--11111111--------333333333--00000000--11111111|


F#||------------------------------------------------------------|
C#||------------------------------------------------------------|
G#||--------------333333333333----------------------------------| x2
D#||-111111111111---------------111111111111----555555---333333-|

                                   x2
F#||--------------------------------------|
C#||---7----7---7--7------3---3---3--3----|
G#||--------------------------------------|
D#||--5--55---5--55----1--11---1--11------|---------8--|


ATTE.ALFREDO
ROCIO TE AMOFuente: Tus acordes