a b c d e f g h i j k l m n o p q r s t u v w x y z 0-9

Procedimientos Para Llegar A Un Comun Acuerdo

Panda

			
Intro y verso
E|-0-|-0-0-0--0-0-0--0-0-0--|-0-|-0-0-0--0-0-0--0-0-0-|
B|-1-|-1-0-1--1-0-1--1-0-1--|-1-|-1-1-1--1-0-1--1-0-1-|
G|-2-|-2-2-2--2-2-2--2-2-2--|-2-|-2-0-2--2-0-2--2-0-2-|
D|-2-|-2-2-2--2-2-2--2-2-2--|-3-|-3-3-3--3-3-3--3-3-3-|
A|-0-|-0-0-0--0-0-0--0-0-0--|-0-|-0-0-0--0-0-0--0-0-0-|
E|-0-|-0-0-0--0-0-0--0-0-0--|-0-|-0-0-0--0-0-0--0-0-0-|

Coro
Guitarra 1
E|-11-12-11----------------11-12-13--------------------|
B|----------10-10-10-10-10----------10-10-10-10-10-----|
G|-----------------------------------------------------|

E|-12-13-12----------------12-13-12--------------------|
B|----------13-13-13-13-13----------13-13-13-13-13-----|
G|-----------------------------------------------------|

E|-11-12-11----------------11-12-13--------------------|
B|----------10-10-10-10-10----------10-10-10-10-10-----|
G|-----------------------------------------------------|

E|-12-13-12-----------------10----------|
B|----------13-13-13-13-13-----13-12-10-|
G|--------------------------------------| 
 x2

Guitarra 2
E|-1111111----------1111111------3333-|
B|-3333333-00000000-3333333-3333-5555-|
G|-3333333-22222222-3333333-5555-5555-|
D|---------22222222---------5555------|
A|------------------------------------|
E|------------------------------------|
 x2

Verso
E|-0-|-0-0-0--0-0-0--0-0-0--|-0-|-0-0-0--0-0-0--0-0-0-|
B|-1-|-1-0-1--1-0-1--1-0-1--|-1-|-1-1-1--1-0-1--1-0-1-|
G|-2-|-2-2-2--2-2-2--2-2-2--|-2-|-2-0-2--2-0-2--2-0-2-|
D|-2-|-2-2-2--2-2-2--2-2-2--|-3-|-3-3-3--3-3-3--3-3-3-|
A|-0-|-0-0-0--0-0-0--0-0-0--|-0-|-0-0-0--0-0-0--0-0-0-|
E|-0-|-0-0-0--0-0-0--0-0-0--|-0-|-0-0-0--0-0-0--0-0-0-|

Coro
Guitarra 1
E|-11-12-11----------------11-12-13--------------------|
B|----------10-10-10-10-10----------10-10-10-10-10-----|
G|-----------------------------------------------------|

E|-12-13-12----------------12-13-12--------------------|
B|----------13-13-13-13-13----------13-13-13-13-13-----|
G|-----------------------------------------------------|

E|-11-12-11----------------11-12-13--------------------|
B|----------10-10-10-10-10----------10-10-10-10-10-----|
G|-----------------------------------------------------|

E|-12-13-12-----------------10----------|
B|----------13-13-13-13-13-----13-12-10-|
G|--------------------------------------| 
 x2

Guitarra 2
E|-1111111----------1111111------3333-|
B|-3333333-00000000-3333333-3333-5555-|
G|-3333333-22222222-3333333-5555-5555-|
D|---------22222222---------5555------|
A|------------------------------------|
E|------------------------------------|
 x2

Interlude
Guitarra 1
E|--7--7--7--7--7--7--7--7---4--4--4--4---6--6--6--6-|
B|-9--9--9--9--9--9--9--9---5--5--5--5---7--7--7--7--|
G|---------------------------------------------------|

E|--7--7--7--7---6--6--6--6---4--4--4--4---6--6--6--6-|
B|-9--9--9--9---7--7--7--7---5--5--5--5---7--7--7--7--|
G|----------------------------------------------------|
 x3

Guitarra 2
E|-------1--3-------3--1--3-|    |-3-|
B|-0--0--3--5----0--5--3--5-|    |-5-|
G|-2--2--3--5----2--5--3--5-|    |-5-|
D|-2--2----------2----------| x3 |---|
A|--------------------------|    |---|
E|--------------------------|    |---|
 
E|-0-|-0-0-0--0-0-0--0-0-0--|-0-|-0-0-0--0-0-0--0-0-0-|
B|-1-|-1-0-1--1-0-1--1-0-1--|-1-|-1-1-1--1-0-1--1-0-1-|
G|-2-|-2-2-2--2-2-2--2-2-2--|-2-|-2-0-2--2-0-2--2-0-2-|
D|-2-|-2-2-2--2-2-2--2-2-2--|-3-|-3-3-3--3-3-3--3-3-3-|
A|-0-|-0-0-0--0-0-0--0-0-0--|-0-|-0-0-0--0-0-0--0-0-0-|
E|-0-|-0-0-0--0-0-0--0-0-0--|-0-|-0-0-0--0-0-0--0-0-0-|
 x2

Coro
Guitarra 1
E|-11-12-11----------------11-12-13--------------------|
B|----------10-10-10-10-10----------10-10-10-10-10-----|
G|-----------------------------------------------------|

E|-12-13-12----------------12-13-12--------------------|
B|----------13-13-13-13-13----------13-13-13-13-13-----|
G|-----------------------------------------------------|

E|-11-12-11----------------11-12-13--------------------|
B|----------10-10-10-10-10----------10-10-10-10-10-----|
G|-----------------------------------------------------|

E|-12-13-12-----------------10----------|
B|----------13-13-13-13-13-----13-12-10-|
G|--------------------------------------| 
 x2

Guitarra 2
E|-1111111----------1111111------3333-|
B|-3333333-00000000-3333333-3333-5555-|
G|-3333333-22222222-3333333-5555-5555-|
D|---------22222222---------5555------|
A|------------------------------------|
E|------------------------------------|
 x2
Outro
Guitarra 1                     terminan
E|---6-6h7--7h9-7-6-|          |----|
B|-9----------------| x3       |-9//|
G|------------------|          |----|

Guitarra 2
E|---------------------------| |-4//-| 
B|---------------------------| |-4//-|
G|-11/4------3//-------6/4-3-| |-4//-|
D|-11/6-5//--5//--5//--8/6-5-| |-----|
A|-9-/6-7//--5//--7//--8/6-5-| |-----|
E|------7//-------7//--------|

Fuente: tusacordes.com