a b c d e f g h i j k l m n o p q r s t u v w x y z 0-9

Procedimientos Para Llegar A Un Comun Acuerdo

Panda

Am
C
F
G
			
 Am             C             Am
Yo se que soy poco superficial
           C                    Am
Y que me manejo en la promiscuidad


            C                   Am
Sí, te voy a hablar con la verdad
             C           F
Para no perder el tiempo más


Nota: este verso se canta empalmado en las dos lineas
anteriores
[Se que quieres, yo también
Te pongo a sudar y lo finges bien
Si quieres prudencia a nadie le diré
Y con elegancia yo te lo daré]

? mientras se toca el riff del coro, las notas del
 acompañamiento se tocan con distorsión y en octavas?

Riff del coro:
-------------------------------|--------------------------------|
--18--17-------------------18--|--18--17--------------------18--|
-------------------------------|--------------------------------|
---------------19------19------|--------------19-------19-------|
-------------------------------|--------------------------------|
-------------------------------|--------------------------------|

-------------------------------|--------------------------------|
--18--17-------------------18--|---18--17------------------18---|
--------------17------17-------|-------------17-------17--------|
-------------------------------|--------------------------------|
-------------------------------|--------------------------------|
-------------------------------|--------------------------------|

-------------------------------|--------------------------------|
--18--17-------------------18--|--18--17--------------------18--|
-------------------------------|--------------------------------|
---------------19------19------|--------------19-------19-------|
-------------------------------|--------------------------------|
-------------------------------|--------------------------------|

-------------------------------|--------------------------------|
--18--17----13----------15-----|---------13--------12-------18--|
-------------------------------|--------------------------------|
-------------------------------|--------------------------------|
-------------------------------|--------------------------------|
-------------------------------|--------------------------------|

-------------------------------|--------------------------------|
--18--17-------------------18--|--18--17--------------------18--|
-------------------------------|--------------------------------|
---------------19------19------|--------------19-------19-------|
-------------------------------|--------------------------------|
-------------------------------|--------------------------------|

-------------------------------|--------------------------------|
--18--17-------------------18--|---18--17------------------18---|
--------------17------17-------|-------------17-------17--------|
-------------------------------|--------------------------------|
-------------------------------|--------------------------------|
-------------------------------|--------------------------------|

-------------------------------|--------------------------------|
--18--17-------------------18--|--18--17--------------------18--|
-------------------------------|--------------------------------|
---------------19------19------|--------------19-------19-------|
-------------------------------|--------------------------------|
-------------------------------|--------------------------------|

-------------------------------|--------------------------------|
----18---17------13--------15--|-------13----12-----10-----8s---|
-------------------------------|--------------------------------|
-------------------------------|--------------------------------|
-------------------------------|--------------------------------|
-------------------------------|--------------------------------|

--------------------|---------------------|---------------------|
--10----------------|------------12-------|--13~----------------|
--------------------|---------------------|---------------------|
--------------------|---------------------|---------------------|
--------------------|---------------------|---------------------|
--------------------|---------------------|---------------------|

----------------------------|-------------|---------------------|
--------13-------12-----8s--|--10~--------|----------12---------|
----------------------------|-------------|---------------------|
----------------------------|-------------|---------------------|
----------------------------|-------------|---------------------|
----------------------------|-------------|---------------------|

-------------|----------------------------|---------------------|
--13~--------|------13-------12-------8s--|--10~----------------|
-------------|----------------------------|---------------------|
-------------|----------------------------|---------------------|
-------------|----------------------------|---------------------|
-------------|----------------------------|---------------------|

Coro:
F                    C
Se que me quieres tener
             F
Y yo te prometo
         Am              G
Prometo no hablarte de amor

              F
Me quieres tener
              C
Tu cuerpo descomunal
             F
Sin indumentaria
               Am             G
Lo quiero con todo respeto palpar



Verso: 2
  Am              C               Am
Aaahh tu nombre olvidé yo preguntar
                C             Am
Dónde vives y cómo te gusta más

          C                  Am
Quiero dejar algo en claro ya
            C             F
Deseo hacerlo todo nadamás

Nota: este verso se canta empalmado en las dos
lineas anteriores
[Tengo que advertirte, tienes que saber
Que igual y no estaré al amanecer
Crees que solo te quiero para una vez
Pero sabes qué, dos estaría bien]

tocar el Riff
Coro:
F                    C
Se que me quieres tener
             F
Y yo te prometo
         Am              G
Prometo no hablarte de amor

              F
Me quieres tener
              C
Tu cuerpo descomunal
             F
Sin indumentaria
               Am             G
Lo quiero con todo respeto palpar


Solo:
-----8-----8-----8-----8--|-----8-----8-----8-----8--|
--8-----8-----8-----8-----|--8-----8-----8-----8-----|
--------------------------|--------------------------|
--------------------------|--------------------------|
--------------------------|--------------------------|
--------------------------|--------------------------|

-----3-----3-----3-----3--|-----5-----5-----5-----5--|
--5-----5-----5-----5-----|--6-----6-----6-----6-----|
--------------------------|--------------------------|
--------------------------|--------------------------|
--------------------------|--------------------------|
--------------------------|--------------------------|

-----8-----8-----8-----8--|-----7-----7-----7-----7--|
--8-----8-----8-----8-----|--8-----8-----8-----8-----|
--------------------------|--------------------------|
--------------------------|--------------------------|
--------------------------|--------------------------|
--------------------------|--------------------------|

-----3-----3-----3-----3--|-----5-----5-----5-----5--|
--5-----5-----5-----5-----|--6-----6-----6-----6-----|
--------------------------|--------------------------|
--------------------------|--------------------------|
--------------------------|--------------------------|
--------------------------|--------------------------| x3

Nota: Esto se oye de fondo durante el solo

?Sensual, la depravación en mi es sensual, rugé Mi 
nombre así sensual? x2


Verso 3
 Am
Tengo que advertirte, tienes que saber
 C
Que igual y no estaré al amanecer
  Am
Crees que solo te quiero para una vez
  C
Pero sabes qué, dos estaría bien


tocar el Riff
Coro:
F                    C
Se que me quieres tener
             F
Y yo te prometo
         Am              G
Prometo no hablarte de amor

              F
Me quieres tener
              C
Tu cuerpo descomunal
             F
Sin indumentaria
               Am             G
Lo quiero con todo respeto palpar

 

Fuente: tusacordes.com