a b c d e f g h i j k l m n o p q r s t u v w x y z 0-9

Procedimientos Para Llegar A Un Comun Acuerdo

Panda

Am
C
F
G
			
 Procedimientos para llegar a un comun acuerdo

Am             C             Am
Yo se que soy poco superficial
         C                   Am
Y q me manejo en la promiscuidad
            C                     Am
Sí, te voy a hablar con la verdad
             C           Am
Para no perder el tiempo más

[Se que quieres, yo también
Te pongo a sudar y lo finges bien
Si quieres prudencia a nadie le diré
Y con elegancia yo te lo daré]

Coro:

guitarra 1

ebI-12-11---------12-11-------------12-11---------12-11-------------------|
BbI-------9-9-9-9-------12-12-12-12-------9-9-9-9-------12-12-14-12-11-12-|
DbI-----------------------------------------------------------------------|
AbI-----------------------------------------------------------------------|
EbI-----------------------------------------------------------------------|

Guitarra 2

F                    C
Se que me quieres tener
             F
Y yo te prometo

         Am              G
Prometo no hablarte de amor

              F
Me quieres tener
              C
Tu cuerpo descomunal
             F
Sin indumentaria
               Am             G
Lo quiero con todo respeto palpar


Verso: 2
  Am              C               Am
Aaahh tu nombre olvidé yo preguntar
                C             Am
Dónde vives y cómo te gusta más

          C                  Am
Quiero dejar algo en claro ya
            C             Am
Deseo hacerlo todo nadamás

[Tengo que advertirte, tienes que saber
Que igual y no estaré al amanecer
Crees que solo te quiero para una vez
Pero sabes qué, dos estaría bien]




Coro:

guitarra 1

ebI-12-11---------12-11-------------12-11---------12-11-------------------|
BbI-------9-9-9-9-------12-12-12-12-------9-9-9-9-------12-12-14-12-11-12-|
DbI-----------------------------------------------------------------------|
AbI-----------------------------------------------------------------------|
EbI-----------------------------------------------------------------------|


Guitarra 2

F                    C
Se que me quieres tener
             F
Y yo te prometo
         Am              G
Prometo no hablarte de amor

              F
Me quieres tener
              C
Tu cuerpo descomunal
             F
Sin indumentaria
               Am             G
Lo quiero con todo respeto palpar


Solo:
-----8-----8-----8-----8--|-----8-----8-----8-----8--|
--8-----8-----8-----8-----|--8-----8-----8-----8-----|
--------------------------|--------------------------|
--------------------------|--------------------------|
--------------------------|--------------------------|
--------------------------|--------------------------|

-----3-----3-----3-----3--|-----5-----5-----5-----5--|
--5-----5-----5-----5-----|--6-----6-----6-----6-----|
--------------------------|--------------------------|
--------------------------|--------------------------|
--------------------------|--------------------------|
--------------------------|--------------------------|


-----8-----8-----8-----8--|-----7-----7-----7-----7--|
--8-----8-----8-----8-----|--8-----8-----8-----8-----|
--------------------------|--------------------------|
--------------------------|--------------------------|
--------------------------|--------------------------|
--------------------------|--------------------------|

-----3-----3-----3-----3--|-----5-----5-----5-----5--|
--5-----5-----5-----5-----|--6-----6-----6-----6-----|
--------------------------|--------------------------|
--------------------------|--------------------------|
--------------------------|--------------------------|
--------------------------|--------------------------| x3

Esto se oye de fondo durante el solo

?Sensual, la depravación en mi es sensual, ruge Mi 
nombre así sensual? x2




Verso 3
 Am
Tengo que advertirte, tienes que saber
 C
Que igual y no estaré al amanecer
  Am
Crees que solo te quiero para una vez
  C
Pero sabes qué, dos estaría bien


Coro:


guitarra 1

ebI-12-11---------12-11-------------12-11---------12-11-------------------|
BbI-------9-9-9-9-------12-12-12-12-------9-9-9-9-------12-12-14-12-11-12-|
DbI-----------------------------------------------------------------------|
AbI-----------------------------------------------------------------------|
EbI-----------------------------------------------------------------------|



Guitarra 2

F                    C
Se que me quieres tener
             F
Y yo te prometo
         Am              G
Prometo no hablarte de amor

              F
Me quieres tener
              C
Tu cuerpo descomunal
             F
Sin indumentaria
               Am             G
Lo quiero con todo respeto palpar


Final

ebI-------------------------------------------------|
BbI?9--11-12-14-12-11-------------------------------|
DbI-------------------------------------------------|x3
AbI-------------------------------------------------|
EbI-------------------------------------------------|


Cualkier reclamo escríbanme a tankian_28@hotmail.com
 

Fuente: tusacordes.com