a b c d e f g h i j k l m n o p q r s t u v w x y z 0-9

Porque Todavia Podemos Decir Una Vez Mas

Panda

			
si saben tokar californication  esta cionka es muy facil :D 
bueno primero se toca 2 veces esto
e|-------------------------------------|
B|----0-------0-------0-4-0---0-2-0----|
G|---4-4-4---4-4-4---4-------4---------|
D|--2---2---2---2---2-------2----------|
A|-----------------0-------0-----------|
E|-0-------4---------------------------|
luego empieza a cantar"en verdad tu eras quien ponia el cielo azul..."
______
"en verdad no se ni donde estoy parado..." con la guitarra.
luego va esto:
e|-----0---0------0--0-----------0-----------------|
B|-------------------------------0-----------------|
G|---6--6-6----6--6-6------------2-----------------|
D|--6-6--6----6-6--6-------------2se dejan sonar-|
A|-4---------0-------------------0-----------------|
E|-------------------------------x-----------------|
esto se toca tres veces y se toca en el pre-coro.
luego va esto:
e|-0---0-0--0-0----0---0-0--0-0----0---0-0--0-0----0---0-0--0-0----------|
B|-0---0-0--0-0----0---0-0--0-0----0---0-0--0-0----0---0-0--0-0----------|
G|-2---2-2--2-2----2---2-2--2-2----5---5-5--5-5----3---3-3--3-3----------|
D|-2---2-2--2-2----2---2-2--2-2----5---5-5--5-5----3---3-3--3-3----x4--|
A|-0---0-0--0-0----1---1-1--1-1----3---3-3--3-3----1---1-1--1-1----------|
E|---------------------------------x---x-x--x-x----x---x-x--x-x----------|

e|-------------|
B|-------------|
G|-22222222----|
D|-22222222----|esto va muteado
A|-00000000----|
E|-------------|

e|-----------|
B|-----------|
G|-222222----|
D|-222222----|
A|-000000----|
E|-----------|

de alli sigue otra vez esto:
bueno primero se toca 2 veces esto
e|-------------------------------------|
B|----0-------0-------0-4-0---0-2-0----|
G|---4-4-4---4-4-4---4-------4---------|
D|--2---2---2---2---2-------2----------|
A|-----------------0-------0-----------|
E|-0-------4---------------------------|
luego empieza a cantar "dices tu que no te gusta que te rueguen luego me padiste que me 
a tus pies..." todo lo q ya puse.
luego va esto:
e|------0--0----0----0-------0-----------------|
B|---------------------------0-----------------|
G|---6--6-6----6--6-6--------2-----------------|
D|--6-6--6----6-6--6---------2se dejan sonar-|
A|-4---------0---------------0-----------------|
E|---------------------------x-----------------|
esto se toca tres veces y se toca en el pre-coro.
luego va esto:
e|-0---0-0--0-0----0---0-0--0-0----0---0-0--0-0----0---0-0--0-0----------|
B|-0---0-0--0-0----0---0-0--0-0----0---0-0--0-0----0---0-0--0-0----------|
G|-2---2-2--2-2----2---2-2--2-2----5---5-5--5-5----3---3-3--3-3----------|
D|-2---2-2--2-2----2---2-2--2-2----5---5-5--5-5----3---3-3--3-3--x6----|
A|-0---0-0--0-0----1---1-1--1-1----3---3-3--3-3----1---1-1--1-1----------|
E|---------------------------------x---x-x--x-x----x---x-x--x-x----------|

e|-------------|
B|-------------|
G|-22222222----|
D|-22222222----|esto va muteado
A|-00000000----|
E|-------------|

e|-----------|
B|-----------|
G|-222222----|
D|-222222----|
A|-000000----|
E|-----------|


si les sale esta xvr suerte  !!

Fuente: Tusacordes