a b c d e f g h i j k l m n o p q r s t u v w x y z 0-9

Porque Todavia Podemos Decir Una Vez Mas

Panda

			
Bueno esta es una rola muy buena de pxndx espero que les guste? cualquier comentario les dejo mi MSN al final NOTA: ESTA EN STANDART NO EN BEMOL
Intro seg. 00    y es lo mismo que toda la parte donde dice en verdad tu eras quien?

E---0 --------------------------------4------------------------------------------
A---------------------------------------------------------------------------------
D-------2----------------------2-----------2------------------------2-----------
G------------4-----------4---------2--------------4-------4--------------2-----
B------------------0------------------------------------0------------------------
e---------------------------------------------------------------------------------

E----------------------------------------------------------------------------------
A-0----------------------------------------0-------------------------------------
D------2-----------------------------------------2-------------------------------
G----------4------------------------------------------4--------------------------
B--------------0-------4---------0-----------------------0-2?0---------------
e----------------------------------------------------------------------------------

se que hay cosas que aclarar?
E----------------------------------------------------------------------------------
A---------------------------------------------------------------------------------
D?6--------------6-------------------2-----------------------2-----------------            X2
G------6--------6--------6-----------------2-----------------2---------2--------
B-----------5-----------------------------------------0---------------------------
e-----------------------------------------------------------------------------------

no me importa sigue igual?
E----------------------------------------------------------------------------------
A----------------------------------------------------------------------------------
D---6--------------------6--------------------4----------------4-----2------2---
G-------6----------6----------6-------------------4--------4-------------------2
B-------------5-----------------------------------------2---------2--------------0
e-----------------------------------------------------------------------------------

solo asienta por favor
E----x----------------------x-------------------4---------------------x------------
A----x----------------------2-------------------4---------------------x-----------
D----2----------------------2-------------------6---------------------4-----------
G----2----------------------1-------------------6---------------------4------------        x2
B----0----------------------x-------------------5----------------------2------2p.m.
e-----x----------------------x-------------------4----------------------x-----------

pero por favor no me dejes dudando?INTRO DE NUEVO
E-----0-----------------------------------------4-----------------------------------
A------------------------------------------------------------------------------------
D---------2-----------------------2---------------------2-----------2--------------         x6
G---------------4------------4-----------2------------------4----4----------2-----
B------------------0---4---0-----------------------------------0-------------------
e-------------------------------------------------------------------------------------

E-------------------------------------------------------------------------------------
A?0-------------------------------0------------------------------------------------
D-----------2-------------------------------2----------------------------------------
G------------------4--------------------------------4-------------------------------- x6
B-----------------------0-------------4--------0----------0----2------0------------
e--------------------------------------------------------------------------------------

me dejaste escapar?
E--------------------------------------------------------------------------------------
A-------------------------------------------------------------------------------------
D---6---------------6--------------------2-------------2----------------------------
G--------6------6--------6--------------------2----------------0--------------------     x2
B------------5--------------------------------------0---------------------------------
e---------------------------------------------------------------------------------------

siempre regresaba en el final?
E--------------------------------------------------------------------------------------
A--------------------------------------------------------------------------------------
D-----6------------6-------------4---------------------4-----------2----------2------
G----------6?6--------6--------------4--------4------------------------------2-----
B-------------5------------------------------2-----------------------2-----------0----
e----------------------------------------------------------------------------------------

solo asienta por favor la cabeza?
E---x-------------x-----------------4-----------x-------------------------------------
A---x-------------2-----------------4-----------x------------------------------------
D---2-------------2-----------------6-----------4-------------------------------------
G---2-------------1-----------------6-----------4------------------------------------
B---0--------------x----------------5-----------2------------------------------------
e----x--------------x----------------4-----------x------------------------------------

y termina con:
    E-xxxxxxxxp.m.------x-------
    A--------------------------2-------
    D--------------------------2-------
    G--------------------------1-------
    B--------------------------x-------
    e---------------------------x-------
cualquier cosa o mentada de madre por favor a jlo960619@hotmail.com

Fuente: tusacordes.com