a b c d e f g h i j k l m n o p q r s t u v w x y z 0-9

Por Que Todavia Podemos Decir Una Vez Mas

Panda

E
			
 hOLA GENTE, AKI SUBIENDO UNA KANCION VERDADERAMENTE BONITA, JEJE
BUENO Y PSS ESPERO QUE LES GUSTE...

 A5    E     C#5    B5
E-O   E-0   E-O   E-O
A-O   A-2   A-4   A-2
D-2   D-2   D-6   D-4
G-2   G-1   G-6   G-4
B-0   B-0   B-0   B-0
E-0   E-0   E-0   E-0

Esto es para las estrofas, bueno para los versos, toquen esto hasta llegar al precoro.
e|-------------------------------------|
B|----0-------0-------0-4-0---0-2-0----|
G|---4-4-4---4-4-4---4-------4---------| 
D|--2---2---2---2---2-------2----------|
A|-----------------0-------0-----------|
E|-0-------4---------------------------|

Esto es lo que van a tocar en el precoro:
e|-----0---------0------------------------|
B|----------------------------------------|
G|---6--6-6----6--6-6---------------------|
D|--6-6--6----6-6--6----------------------|
A|-4---------0----------------------------|
E|----------------------------------------|

 ..."Sigue igual"
e|-0------------------|
B|-0------------------|
G|-2------------------| dejalas sonar.
D|-2------------------|
A|-0------------------|
E|-x------------------|

 Coro:
A5                 E
 solo asienta por favor
 
 la cabeza si los
C#5    
 planes han cambiado
    B5
 si los planes han cambiado
A5                  E
 solo niega sin razon
  
  con la cabeza
 C#5    
 si igual se han quedado
    B5 
 si igual se han quedado
   A5 <---[AHOGANDO LAS CUERDAS]
pero por favor no me dejes dudando

PARA ESTO PSS YA SBAEN QUE HACER:

dices tu que no t gusta
que te rueguen
luego me pediste
que me arrodille
a tus pies
ya sabias que lo haria
pues no existe
cosa que me detenga
para hacerte sentir bien

me dejaste escapar
irresponsabilidad
siempre regresaba en el final

Y PARA ESTO TAMBIEN SABEN QUE HACER:

sonrie por favor
sonrie niña
yo me quedare
te juro
yo me quedare

si quieres tu llorar
si tu lloras yo me ire al amanecer
yo me ire al amanecer
pero por favor
no me dejes dudando
no me dejes dudando
no me dejes dudando

pero por favor no me dejes dudando....


Bueno pss esto es todo
perdon si no pongo todo a toda la letra pero la flojera es muy grande en este momento... jajajja, bueno espero que les guste

bye bye
mi msn pa el k lo quiera seim.seim@hotmail.com
y una pagina para k afinen su guitarra : http://www.marianistas.org/musica/afinador/afinador.swf 

Fuente: tusacordes.com