a b c d e f g h i j k l m n o p q r s t u v w x y z 0-9

Pensandolo Bien, Pense Mal

Panda

G
D
Am
C
Em
Bm
G#
D#
C#
Fm
Cm
			
G                D
Lo que debería decir
               Am
ya se ha dicho mucho tiempo atrás
         C
no tiene caso una vez más.
           G                   D
Por cierto, tienes que dejar actuar
             Am                       C
basta ya, la vida, corazón, no es una obra de ficción.
D
Lo siento.

 C     G      Em  D
¡Revolución! ¡woooh!
      Am        C     G   D
No le pongo atención. Woooh.
        C       G     Em  D
Al cabo es perdición. Woooh.
           Am                       D
Pues no me queda nada más que las memorias y mi edad.

G                D           C
Ocúltame una historia, ¡woooooh!
             Em           D
alguna loca idea de la maldad.
G              D                     C
Escríbeme un soneto que me haga sollozar
               Em             D
y canta una canción que diga así:
       Am     C    G   D
Todos ¡woh woooh! ¡Woooh!

Am, C, G, D.

G                     D
El mundo no es teatro ni
               Am
la vida un escenario,
                        C
por favor, ya deja a un lado la actuación.
G                       D
Pues puedo verla desde acá
                 Am
sonrisa que te encanta ocultar
       C          D
Debajo de ese antifaz

         C       G    Em  D
¡Todos! ¡Ya terminó! ¡Woooh!
     Am            C     G   D
Terminó la gran función. Woooh.
           C          G   Em  D
Y ahora es tuyo el plato. Woooh.
          Am
La gente aplaude con fervor
           D
te encanta toda esa ovación.

G           D           C
Dime una mentira, ¡woooooh!
                 Em           D
alguna que en el fondo sea verdad.
G              D                        C
Escríbeme un poema que no rime en er ni ar
                 Em            D
y chifla una melodía que vaya así:
       Am     C    G   D
Todos ¡woh woooh! ¡Woooh!

Am, C, G, D.


Solo:


e|----------------------------|
B|----------------------------|
G|-9-9------------------------|
A|-9-9--9-9--10-10--5-5--7--5-|
D|-7-7--9-9--10-10--5-5--7--5-|
E|------7-7--8--8---3-3--5--3-|
  [Em] [Bm]  [C]    [G][Am][G]  X3
e|----------------------------|/
B|----------------------------|
G|-9-9--------------5-5--7-7--|
A|-9-9--9-9--10-10--5-5--7-7--|
D|-7-7--9-9--10-10--3-3--5-5--|
E|------7-7--8--8-------------|
  [Em] [Bm]  [C]    [C]  [D]

e|----------------------------|
B|----------------------------|
G|-9-9------------------------|
A|-9-9--9-9--10-10--5-5--7--5-|
D|-7-7--9-9--10-10--5-5--7--5-|
E|------7-7--8--8---3-3--5--3-|
  [Em] [Bm]  [C]    [G][Am][G]
e|----------------------------|
B|----------------------------|
G|-9-9-------7-7-7-7-7-7-7-7--|
A|-9-9--9-9--7-7-7-7-7-7-7-7--|
D|-7-7--9-9--5-5-5-5-5-5-5-5--|
E|------7-7-------------------|
  [Em] [Bm] [D]

G             D      C
Cuéntame un relato,
                    Em         D
uno en el cual no se amen al final.
G            D                      C
Ponme un acertijo que no me haga pensar,
                Em           D
pues quiero olvidarme qué se siente el no amar.

C     G   Em  D
¡Wooooh! ¡Woooh!

C     G   Em  D
¡Wooooh! ¡Woooh!

¡Cantando!

C     G   Em  D
¡Wooooh! ¡Woooh!

C     G   Em  D    C ]]]
¡Wooooh! ¡Woooh!


Cambiar los acordes de ésta manera para que suene como la original.

G [G#], D [D#], Am [A#m], C [C#], Em [Fm], Bm [Cm].Fuente: Tus acordes