a b c d e f g h i j k l m n o p q r s t u v w x y z 0-9

Pathetica

Panda

			
Intro...Afinacion bemol medio tono abajo

E|--------------------12-12-11-11-11-9-9-9-------|
B|----9-9-9--10-10-10----------------------12-12-|
G|-----------------------------------------------|
D|-----------------------------------------------|
A|-----------------------------------------------|
E|-----------------------------------------------|

E|--------------------12-12-14-14-14-12-12-12-11-11-|
B|----9-9-9-10-10-10--------------------------------|
G|--------------------------------------------------|
D|--------------------------------------------------|
A|--------------------------------------------------|
E|--------------------------------------------------| x2

PARTE 2
E|---------------------------------16------16--------|
B|---------12-------12-------12-14----12-14----12-14-|
G|---------------------------------------------------|
D|---13-14----13-14----13-14-------------------------|
A|---------------------------------------------------|
E|---------------------------------------------------|


E|----16--12----14--11---------|
B|-----------12--------12------|
G|-----------------------------|
D|-----------------------------|
A|-----------------------------|
E|-----------------------------|

E|--------------------------------16-------16---------|
B|--------12-------12-------12-14----12-14----12-14---|
G|----------------------------------------------------|
D|---13-14----13-14----13-14--------------------------|
A|----------------------------------------------------|
E|----------------------------------------------------|

E|-------------------------------------------|
B|---12----9--11--8--------------------------|
G|------13-----------9-----6~----------------|
D|-------------------------6~----------------|
A|-------------------------4~----------------|
E|-------------------------------------------|


Armonia:
E|--------------------------------------------------|
B|--------------------------------------------------|
G|----66666666----------99999999--------------------|
D|----66666666-77777777-99999999-99999999-----------|
A|----44444444-77777777-77777777-99999999-----------|
E|-------------55555555----------77777777-----------|



verso.. puro bajo sino ps token n la lira

E|--------------------------------------------------|
B|--------------------------------------------------|
G|--------------------------------------------------|
D|--------------------------------------------------|
A|--44444444----------77777777----------------------|
E|-----------55555555----------77777777-------------| x2

AKI SE TOKA EN ?Y SE KE YA T CANSASTE???

PAL MUTED:
E|--------------------------------------------------|
B|--------------------------------------------------|
G|----66666666----------99999999--------------------|
D|----66666666-77777777-99999999-99999999-----------|
A|----44444444-77777777-77777777-99999999-----------|
E|-------------55555555----------77777777-----------| x2


?QUIZA NUNCA PASARÁ??
E|-------------------|
B|-------------------|
G|-------------------|
D|--7-7-----9-9------|
A|--7-7-----9-9------|
E|--5-5-----7-7------|



?QUIZA SIEMPRE SERA IGUAL, SUGIERO NO ILUSIONAR?
E|--------------------------------------------------|
B|--------------------------------------------------|
G|--------------------------------------------9-----|
D|---7-7----9-9------------------------11--7--9-----|
A|---7-7----9-9------------------------11--7--7-----|
E|---5-5----7-7------------------------9---5--------|

EN EL CORO: ?RECUERDA QUE AUNKE T VEAS PERFECTA??

c tok la primera part dl requinto  intro y la armonia 2 vcs
c rpit coro y bajo
Y LUEGO DESPUES DEL SEGUNDO CORO:

E|---------------------------------|
B|---------------------------------|
G|---------------------------------|
D|---7~----9~----9~---7~---9~------|
A|---7~----9~----9~---7~---9~------|
E|---5~----7~---11~---5~---7~------|









Y LUEGO EL INTERLUDE ES ASÍ:

E|----------------------------------------------|
B|----------------------------------------------|
G|--6--8--9--8--6--8---9--11-9--8--6------------|
D|--x--x--x--x--x?-x---x--x--x--x--x------------|
A|--4--6--7--6--4--6---7--9--7--6--4------------|
E|----------------------------------------------|

E|---------------------------------------|
B|---------------------------------------|
G|--8--9--8--6--8---9--11----------------|
D|--x--x--x--x--x---x--x-----------------|
A|--6--7--6--4--6---7--9-----------------|
E|---------------------------------------|

Y LUEGO VA EN: ?TAL VEZ YA TE CANSASTE??
pero con la lira no con l bajo OJO

PALM MUTED
E|--------------------------------------------------|
B|--------------------------------------------------|
G|--------------------------------------------------|
D|--------------------------------------------------|
A|--44444444----------77777777----------------------|
E|-----------55555555----------77777777-------------| x2






E|--------------------|
B|--------------------|
G|---8--8--8--8-------|
D|---8--8--8--8-------|
A|---6--6--6--6-------|
E|--------------------|

c tok l requinto intro completo y dspus va sto..
?DESEAS MUY FUERTE KE YA SEA MAÑANA..?

E|--------------------------------------------------|
B|--9-10--9-10--9-10--9-10--9-10--9-10--9-10--9-10--|
G|--------------------------------------------------|
D|--------------------------------------------------|
A|--------------------------------------------------|
E|--------------------------------------------------|

?DESEAS MUY FUERTE KE YA SEA MAÑANA...?

E|------12-14--12-14--12-14--12-14--12-14--12-14----|
B|--------------------------------------------------|
G|--------------------------------------------------|
D|--------------------------------------------------|
A|--------------------------------------------------|
E|--------------------------------------------------|



PARA FIN: ?DESEAS MUY FUERTE KE YA SEA MAÑANA...?
sto s un poco rapido y algo complikdo ai ustds busqn n tiempo

E|----12r14?12h14?12rh14--14?16-16---14-16?17-16-14-|
B|----12----12-----12-----12?12-12------------------|
G|--------------------------------------------------|
D|--------------------------------------------------|
A|--------------------------------------------------|
E|--------------------------------------------------|



a ps sta kncion sta dl hPtas... y s facil d tokr... lo q hac un rato d vagancia m puse a scucharla y ps ia la saq y ai sta

Fuente: tusacordes.com