a b c d e f g h i j k l m n o p q r s t u v w x y z 0-9

Oro

Panda

			
INTRO:

E|-3-3-3-3-3-2-0---0-2----|
B|---------------3-----1--|
G|------------------------|
D|------------------------|
A|------------------------|
E|------------------------|

|--0-0-0-0-0--------------|
|------------3-1-0-1-3----|
|-------------------------|
|-------------------------|
|-------------------------|
|-------------------------|


|-3-3-3-3-3-2-0---0-2----|
|---------------3--------|
|------------------------|
|------------------------|
|------------------------|
|------------------------|

|---------0-----|
|-1-1-1-3---3---|
|---------------|
|---------------|
|---------------|
|---------------|

Fuente: Tusacordes