a b c d e f g h i j k l m n o p q r s t u v w x y z 0-9

Nunca Nadie Nos Podra Parar

Panda

			
Nunca nadie nos podra parar

Intro:

   Bajo:
D|-----------------------------------------------------------------|
A|-----------------------------------------------------------------| x2
E|--6-666-666-6666--4-444-444-4444--2-222-222-2222--2-222-222-2222-|

  Guitarra 1:
E|--------------16----14---13-----------|
B|-----11--14-------------------11------| x2
G|--------------------------------------|
D|--------------------------------------|
A|--------------------------------------|
E|--------------------------------------|

Verso 1:
D|-----------------------------------------------------------------|
A|--------------------------------------------------4-444-444-4444-| x2
E|--6-666-666-6666--4-444-444-4444--2-222-222-2222-----------------|

D|-----------------------------------------------------------------|
A|--6-666-666-6666--4-444-444-4444---------------------------------|
E|----------------------------------6-666-666-6666--4-444-444-4444-|

D|-----------------------------------------------------------------|
A|------------------4-444-444-4444---------------------------------|
E|--2-222-222-2222------------------4-444-444-4444--4-444-444-4444-|

 Precoro:

  Piano:
E|-------------16----14--13----------|
B|-----11--14----------------11------| x2
G|-----------------------------------|
D|-----------------------------------|
A|-----------------------------------|
E|-----------------------------------|

E|----14--13--------14--13--------16--14--13------------13------------13--|
B|------------14------------11----------------11----14------14----11------|
G|------------------------------------------------------------------------|
D|------------------------------------------------------------------------|
A|------------------------------------------------------------------------|
E|------------------------------------------------------------------------|


   Guitarra 2:
E|--------------------------------------------------------------------|
B|-6---6---6---6----4---4---4---4----7---7---7---7----6---6---6---6---|
G|---6---6---6---6----5---5---5---5----6---6---6---6----6---6---6---6-| X2
D|--------------------------------------------------------------------|
A|--------------------------------------------------------------------|
E|--------------------------------------------------------------------|

E|--------------------------------------------------------------------|
B|-7---7---7---7----6---6---6---6----2---2---2---2----4---4---4---4---|
G|---6---6---6---6----6---6---6---6----3---3---3---3----5---5---5---5-|
D|--------------------------------------------------------------------|
A|--------------------------------------------------------------------|
E|--------------------------------------------------------------------|

E|--------------------------------------------------------------------|
B|-7---7---7---7----6---6---6---6----7---7?--9---9----7---7---9---9---|
G|---6---6---6---6----6---6---6---6----6---6---8---8----6---6---8---8-|
D|--------------------------------------------------------------------|
A|--------------------------------------------------------------------|
E|--------------------------------------------------------------------|
Coro:
No c cuantas veces se toque pero aquí estan los acordes

Guitarra Pp:
E|------------------------------------------------------------|
B|------------------------------------------------------------|x2
G|--6---------------------------------------------------------|
D|--6-------------6-------------4--------------8-------6------|
A|--4-------------6-------------4--------------8-------6------|
E|----------------4-------------2--------------6-------4------|


Guitarra Ar2ro:
E|---------------------------------------------------------------
B|---------------------------------------6-----7-----6-----7-6---
G|-6--5--6--8--6----6--5--6--8--6----6-6---6-6---6-6---6-6-------
D|---------------------------------------------------------------
A|---------------------------------------------------------------
E|---------------------------------------------------------------

E-------------------------------|
B-------------------------------| x2
G--------5--6----------6--5-----|
D--6--8----------6--8-----------|
A-------------------------------|
E-------------------------------|

Interlude: creo que se llama
Guitarra Ar2ro:
E|---------------------------------------------------|
B|---------------------------------------------------|
G|-6-----6-----5-----5-----6-----6-----5--6--8--6-5--| x2
D|----8-----8-----6-----6-----8-----8----------------|
A|---------------------------------------------------|
E|---------------------------------------------------|


Guitarra Pp:
E|------------------------------------------------------------------|
B|------------------------------------------------------------------|
G|------------------------------------------------------------------|
D|--8-------6-------4-------6-------8-------6-------4-------6-------|
A|--8-------6-------4-------6-------8-------6-------4-------6-------|
E|--6-------4-------2-------4-------6-------4-------2-------4-------|



Verso:

E|--------------------------------------------------------------------|
B|-6---6---6---6----4---4---4---4----7---7---7---7----6---6---6---6---|
G|---6---6---6---6----5---5---5---5----6---6---6---6----6---6---6---6-| X2
D|--------------------------------------------------------------------|
A|--------------------------------------------------------------------|
E|--------------------------------------------------------------------|


Precoro:
Parte de Piano:
E|----14--13--------14--13--------16--14--13------------13------------13--|
B|------------14------------11----------------11----14------14----11------|
G|------------------------------------------------------------------------|
D|------------------------------------------------------------------------|
A|------------------------------------------------------------------------|
E|------------------------------------------------------------------------|



E|--------------------------------------------------------------------|
B|-7---7---7---7----6---6---6---6----2---2---2---2----4---4---4---4---|
G|---6---6---6---6----6---6---6---6----3---3---3---3----5---5---5---5-|
D|--------------------------------------------------------------------|
A|--------------------------------------------------------------------|
E|--------------------------------------------------------------------|

E|--------------------------------------|
B|-7---7---7---7----6---6---6---6----4--|
G|---6---6---6---6----6---6---6---6--5--|
D|--------------------------------------|
A|--------------------------------------|
E|--------------------------------------|


Coro:


Guitarra Pp:
E|------------------------------------------------------------|
B|------------------------------------------------------------| x2
G|--6---------------------------------------------------------|
D|--6-------------6-------------4--------------8-------6------|
A|--4-------------6-------------4--------------8-------6------|
E|----------------4-------------2--------------6-------4------|


Guitarra Ar2ro:
E|---------------------------------------------------------------
B|---------------------------------------6-----7-----6-----7-6---
G|-6--5--6--8--6----6--5--6--8--6----6-6---6-6---6-6---6-6-------
D|---------------------------------------------------------------
A|---------------------------------------------------------------
E|---------------------------------------------------------------

E-------------------------------|
B-------------------------------| x2
G--------5--6----------6--5-----|
D--6--8----------6--8-----------|
A-------------------------------|
E-------------------------------|



Esto es de piano pero pues si suena
E|-------------------------------------------------------|
B|-------------------------------------------------------|
G|--6---6---5---5----------6----6---6---5---5------------|
D|----8---8---6---8-6-8--8---8----8---8---6---8-6-8-8-8--|
A|-------------------------------------------------------|
E|-------------------------------------------------------|

Ar2iko:
E|----------------------------------------------------|
B|----------------------------------------------------|
G|--6?-5h6/5---------------6-5h6/5--------------------|
D|------------8-6-8-----------------8-6-8-------------|
A|-------------------6--8-----------------------------|
E|-----------------------------------------0-2-5-6-8--|







Solo
Ar2riko:
E|--------------------------9-8---------------11h13-13----11-9--------
B|--11h13/11--------------9-----9----------------------11------6/7-6--
G|------------8h108-8-6-----------1/106---6-------------------------
D|----------------------------------------8---------------------------
A|--------------------------------------------------------------------
E|--------------------------------------------------------------------



Pp:
Nadamas se toca una vez cada acorde
Solo vallan escuchando la canción para que me entiendan

E|------------------------------------------------
B|------------------------------------------------
G|--------------------6-----------------------6---
D|--8-----6-----4-----6-----8-----6-----4-----6---
A|--8-----6-----4-----4-----8-----6-----4-----4---
E|--6-----4-----2-----------6-----4-----2---------

E|-----------------------------------------------|
B|-----------------------------------------------|
G|--8-----6-----------------------6--------------|
D|--8-----6-----8-----6-----4-----6-----6-6-6-6--|
A|--6-----4-----8-----6-----4-----4-----6-6-6-6--|
E|--------------6-----4-----2-----------4-4-4-4--|


Coro: Ya es con ritmo


Guitarra Pp:
E|------------------------------------------------------------|
B|------------------------------------------------------------| x2
G|--6---------------------------------------------------------|
D|--6-------------6-------------4--------------8-------6------|
A|--4-------------6-------------4--------------8-------6------|
E|----------------4-------------2--------------6-------4------|


Guitarra Ar2ro:
E|---------------------------------------------------------------
B|---------------------------------------6-----7-----6-----7-6---
G|-6--5--6--8--6----6--5--6--8--6----6-6---6-6---6-6---6-6-------
D|---------------------------------------------------------------
A|---------------------------------------------------------------
E|---------------------------------------------------------------

E-------------------------------|
B-------------------------------| x2
G--------5--6----------6--5-----|
D--6--8----------6--8-----------|
A-------------------------------|
E-------------------------------|


Guitarra Pp:
E|------------------------------------------------------------------|
B|------------------------------------------------------------------|
G|------------------------------------------------------------------|
D|--8-------6-------4-------6-------8-------6-------4-------6-------|
A|--8-------6-------4-------6-------8-------6-------4-------6-------|
E|--6-------4-------2-------4-------6-------4-------2-------4-------|






Guitarra Ar2ro:
E|---------------------------------------------------|
B|---------------------------------------------------|
G|-6-----6-----5-----5-----6-----6-----5--6--8--6-5--| x2
D|----8-----8-----6-----6-----8-----8----------------|
A|---------------------------------------------------|
E|---------------------------------------------------|

Ojala q les guste esta rola de la mejor banda de Latinoamérica y del mundo q es Panda!!!! 

Fuente: tusacordes.com