a b c d e f g h i j k l m n o p q r s t u v w x y z 0-9

Nuestra Aflicción

Panda

			
--x-x-x-x-x-x-x-x-x-x-x-x---x--x--x--x--x---x--x---x--x-x--x-x-x|
--7-7-7-7/9-9-9-9/10-10-10-10/12-12-12-12--14-14--12-10-9-10-9-7|
----------------------------------------------------------------|
----------------------------------------------------------------|
----------------------------------------------------------------|
----------------------------------------------------------------|

--------------------------------------------|
-----16v-------16v-------16v-------16v------|
---------16--------16--------16--------16---|
------------18--------18--------------------|
--------------------------------18--------18|
--------------------------------------------|


--x-x-x-x-x-x-x-x-x-x-x-x---x--x--x--x--x---|
--7-7-7-7/9-9-9-9/10-10-10-10/12-12-12-12---|
--------------------------------------------|
--------------------------------------------|
--------------------------------------------|
--------------------------------------------|

---------------------------------------------------|
-----12-12-10-9---9--------------------------------|
--------------------11-9---9-----------------------|
-----------------------------11-9----11------------|
---------------------------------------------------|
---------------------------------------------------|

----------------------------------------------------|
-----19v-17------19v-17------19v-17------19v-17-----|
------------16----------16--------------------------|
------------------------------------18----------18--|
----------------------------------------------------|
----------------------------------------------------|


------------------------------------------------------|
------------------------------------12h16t19p16p12----|
---------------16-----------------13--------------13--|
---18-16-16h18----18-14-13-14---14------------------14|
------------------------------------------------------|
------------------------------------------------------|

--------------------------------------------|
-----16v-------16v-------16v-------16v------|
---------16--------16--------16--------16---|
------------18--------18--------------------|
--------------------------------18--------18|
--------------------------------------------|

----------------------------------------------------------|
-17-16-17-16-17-16-17----------17-16-17-16--19v-17p16-----|
--------------------------16-18----------------------16---|
---------------------16-18--------------------------------|
----------------------------------------------------------|
----------------------------------------------------------|Fuente: Tus acordes