a b c d e f g h i j k l m n o p q r s t u v w x y z 0-9

Nuestra Aflicción

Panda

			
VERSIÓN UNPLUGGED: SOLO

E------------------------------------------------------------------
A------------------------------------------------------------------
D------------------------------------------------------------------
G--5---7-8------7-8----10----8----7------------------9-------------
B----------9-11-----------------------11---9--8-9-11-------11------
E-------------------------------------------------------13----13-15

E------------------------------------------------------------------
A------------------------------------------------------------------
D------------------------------------------------------------------
G-------------------10-8-----------10-8---10/12/10-8---------------
B------------11-9-8---------11-9-8---------------------6-8---6-4-6-
E-11-10-11-------------11--------------------------------6-------

Fuente: Tusacordes