a b c d e f g h i j k l m n o p q r s t u v w x y z 0-9

Nuestra Aflicción

Panda

			
COMO TOCAR EL SOLO DE NUESTRA AFLICCION   
                                            
--------------------------------------------------------------
---------------------------------11-11-11-11h12-13-13h12-11---
-8-8-8-8-12-12-12-12-13-13-13-13------------------------------
--------------------------------------------------------------
--------------------------------------------------------------
-------------------------------------------------------------- 


---------------------------------------------------
---------------------------------------------------
---------------------------------------------------
--------10h9-8--------------------------------------
---------------10h9-8/6----------------------------
---------------------------------------------------

cheken los tiempos
--------------------------------------------------------
-15^-15-11----15^-15-11----15^-15-11---15^-15-11--------
-----------12-----------12-----------8----------8-------
--------------------------------------------------------
--------------------------------------------------------
--------------------------------------------------------  


-----------------------------------------------------
---------------------8-8-8-8-9-9-9-9-11--------------
-8-8-8-8-10-10-10-10----------------------------------
-----------------------------------------------------
-----------------------------------------------------
----------------------------------------------------- 

-----------------------------------------------------
-9-8-----------------------------------------------------
-----10h9-8-----------------------------------------------
------------10h9-8-10/13---------------------------------------
------------------------------------------------------
------------------------------------------------------     
cheken los tiempos
-13^-13-11---13^-13-11---13^-13-11---13^-13-11------------
----------11----------11----------8----------8------------
----------------------------------------------------------
----------------------------------------------------------
----------------------------------------------------------
----------------------------------------------------------  
                 esta parte es como clikeo 
---------------------6-------------------------------
-8-8-8-8-6-6-6-6h7h8------8h7h6-------------------------
------------------------------8--8-8-7-8------------
-----------------------------------------------------
-----------------------------------------------------
------------------------------------------------------   

----15-16-18--16-15---------------------------
-16-----------------16-15---------------------
----------------------------------------------
---------------------------13~-----------------
----------------------------------------------
----------------------------------------------
cheken los tiempos
-10-11-10------10-11-10------10-11-10------10-11-10-------
----------11-8----------11-8----------11------------11----
-----------------------------------------8-------------8--
----------------------------------------------------------
----------------------------------------------------------
----------------------------------------------------------   

-11-11-11-11-11^----I------------------I-11-11-11-11-11^-------I
--------------------I---------9h10h11--I-----------------------I
----------------X3--I-9h10h11----------I-----------------------I
--------------------I------------------I-----------------X2----I
--------------------I------------------I-----------------------I
--------------------I------------------I-----------------------I
SIMBOLOGIA:  
HAMMER-ON:

Se toca la primera nota y la segunda se hace sonar por medio de un tap presionar el trasto de la guitarra y lograr un solo sonido sin necesidad de hacer un punteo la segunda nota.

Código:
E-|------------------|
B-|----5h7-----------|
G-|------------------|
D-|------------------|
A-|------------------|
E-|------------------| 
eso es todo, espero que les alla gustado 
es mi correo por si no le entendieron a la tablatura: 
alez011@hotmail.com

Fuente: Tusacordes