a b c d e f g h i j k l m n o p q r s t u v w x y z 0-9

No Tienes Oportunidad Contra Mi Patetica Imaginacion

Panda

			
esta cancion sta mui facil
i pues este tab esta en un 100

verso
G|---------------------------------------------
D|---------------------------------------------
A|-4444444444------------1111111111------------
E|------------2222222222------------4444444444- x2
precoro
G|-----------------------|-----------------------
D|-----------------------|-----------------------
A|-----------44444-11111-|-----------------------
E|-2222-4444-------------|x3---22222222-44444444-

coro
G|-------------------------------------
D|-------------------------------------
A|-44444444-11111111-------------------
E|-------------------22222222-44444444- x2

puente
G|-----------------------------------------------
D|-----------------------------------------------
A|-4444-44-44------------1111-11-11------------4-
E|------------2222-22-22------------4444-44-44---

verso2
G|--------------------------------------
D|--------------------------------------
A|-------------1111111111---------------
E|-4-2222222222------------444444-4-4-4-

G|---------------------------------------------
D|---------------------------------------------
A|-4444444444------------1111111111------------
E|------------2222222222------------4444444444-

tocar precoro
tocar coro x2

G|------------------
D|------------------
A|-4~--4----1~-1----
E|------2~------4~--

G|-----------------------------------------------
D|-----------------------------------------------
A|-4444444444------------1111111111------------4-
E|------------2222222222------------4444444444---

coro2
G|----------------------------------------
D|----------------------------------------
A|-44444444-11111111----------------------
E|-------------------22222222-44444-4-4-4-

tocar coro x2

fin
G|-----------------
D|-----------------
A|-4-444-44-44-4/1-
E|-----------------

saludos a las mustias i a torreon :)
fotolog.net/synyster_gFuente: Tus acordes