a b c d e f g h i j k l m n o p q r s t u v w x y z 0-9

No Tienes Oportunidad Contra Mi Antipatica Im

Panda

			
ps esta es una rola muy chida de panda ojala les guste..
  saludos pa la banda, pa el pitt, bele y la señora golos jaja

   
   esto lo tocan ambas guitarras 1 y 2.
     
    VERSO
   
    "lo que hagas con tu tiempo esta bien..."

     e--------------------------------------
     b--------------------------------------
     g-77777777-----------------------------
     a-77777777-55555555-99999999-77777777--  x2
     d-5555555--55555555-99999999-77777777--
     E----------33333333-77777777-55555555--

  
      PRE CORO
    
     "creeme, que aprendi a ya no perdonar..."
 
     e-----------------------------------
     b----------------------------------- 
     g-----------------7777777----------- x3 y con pal mute
     a-5555555-7777777-7777777-9999999---
     d-5555555-7777777-5555555-9999999---
     E-3333333-5555555---------7777777---
        ******  ******  ******  ******

     
     esto se toca en la parte de "para comenzaaaar.."

     e-------------------------
     b-------------------------
     g-------------------------
     a-55555555-77777777-------
     d-55555555-77777777-------
     E-33333333-55555555-------


      CORO
    
     "y ya no verte mas ya para de llorar..."
  
      e---------------------------------------
      b---------------------------------------
      g-77777777------------------------------  x2
      a-77777777-99999999-55555555-77777777--- 
      d-55555555-99999999-55555555-77777777---
      E----------77777777-33333333-55555555---


      ESTRIBILLO
   
      e---------------------------------------------------
      b-9999999-10-11111111-10-99999999-8-777777-88-77-6--
      g-xxxxxxxx-x--xxxxxx---x-xxxxxxxx-x-xxxxxx-xx-xx-x--
      a-77777777-8--999999---9-77777777-6-555555-66-55-4--
      d---------------------------------------------------
      E---------------------------------------------------


      luego la primera guitarra toca esto con pal mute
     
      "quiero verte ya con alguien mas..."
     
       e--------------------
       b--------------------
       g-7777777777---------
       a-7777777777---------
       d-5555555555---------
       E--------------------
         **********

       luego continuan las dos guitarras
     
      "y asi envenenar el aire ambiental..."
    
       e--------------------------------------
       b--------------------------------------
       g--------------------------------------
       a-55555555-99999999-77777777-7-7-7-----
       d-55555555-99999999-77777777-7-7-7-----
       E-33333333-77777777-55555555-5-5-5-----
                                    * * *
                         
    
      luego el toca el VERSO x1 y el CORO x2 y siguen los solos de guitarra
 
  
         guitarra dos al mismo tiempo que la guitarra uno

        e--------------------
        b--------------------
        g-7------------------
        a-7---7-5--9---5-7---
        d-5---5-5--9---5-7---
        E-------3--7---3-5---

        e-----------------------------
        b-----------------------------
        g-----------------------------
        a-7--9-9/11-11-9-7-6-5-4------
        d-5--7-7/9--9--7-5-4-3-2------
        E-----------------------------
       


           guitarra uno al mismo tiempo que la guitarra dos
          esto lo pueden hacer con la mano que tocan tal como 
        lo hace arturo.

        e----------------------------------------------
        b-14------13-------14-------16--------14-------
        g----------------------------------------------
        a---12-12----12-12----12-12-----12-12----12-12-
        d----------------------------------------------
        E----------------------------------------------  
                                                        x2
        e----------------------------------------------
        b-14--------13-------14-------11-------14------
        g----------------------------------------------  
        a----12-12-----12-12---12-12-----12-12---12-12-
        d---------------------------------------------- 
        E----------------------------------------------
        
   
    
       ----------- luego el coro en silencio-----------

      se toca el PRE CORO Y EL CORO y termina asi


      
      guitarra dos
     
      e-----------------
      b-9999999999---7--
      g-xxxxxxxxxx---7--
      a-7777777777---5--
      d-----------------
      E-----------------
       

     guitarra uno
    
     e---------------------------------------------------
     b-14-------13-------14--------13--------14-----7----
     g----------------------------------------------7----
     a----12-12----12-12-----12-12-----12-12----12--5----
     d---------------------------------------------------
     E---------------------------------------------------



      bueno eso es todo ojala les guste y les sirva esta tab,
      sigan rockeando y arriba el eock y pxndx!!!

Fuente: tusacordes.com