a b c d e f g h i j k l m n o p q r s t u v w x y z 0-9

No Te Deseo El Bien... Pero Tampoco Te Deso El Mal

Panda

			
NO TE DESEO EL BIEN PERO TAMPOCO EL MAL-- SINFONIA SOLEDAD

intro TECLADO
e|---------------------------------------------|
B|-----------------------------------4-7---4-7-|
G|----8----8----8----8----9----9---4-----3-----|
D|----6----6----8----8----9----9---4-----4-----|
A|-----------------4----4----4-----------------|
E|--4----4----2--------------------------------|

e|-------------------------------------------------|
B|-----------------------------------0-4--------4--|
G|----8----8----8----8----9----9---4--------3-3----|
D|----6----6----8----8----9----9---4--------4------|
A|-----------------4----4----4---------------------|
E|--4----4----2------------------------------------|

e|-------------------------------------------------|
B|-------------------------------------------------|
G|-8---8---8---8---8---8---------------8--9-8-6----|
D|-6---6---6---8---8---8---6---6---6---8-----------|
A|-------------------------4---4---4---------------|
E|-------------------------------------------------|


e|-------------------------------------------------|
B|-------------------------------------------------|
G|-8---8---8---8---8---8---------------8--9-8-6----|
D|-6---6---6---8---8---8---6---6---6---8-----------|
A|-------------------------4---4---4-------------4-|
E|-------------------------------------------------|

GUITARRA 1 AFINADA MEDIO TONO MAS ABAJO

                   X2
eb|----------------------------------|
Bb|----------------------------------|
Gb|--------7---5---------------------|
Db|7---5---7---5---5-----------------|
Ab|7---5---5---3---5-----------------|
Eb|5---3-----------3-----------------|

Escuchen los ritmos y las repeticiones en la cancion

Verso
                  X2
eb|--------------------------------|
Bb|--------------------------------|
Gb|5-------7---5-------------------|
Db|5--5----7---5--5----------------|
Ab|3--5----5---3--5----------------|
Eb|---3-----------3----------------|
"Pobre compañeroo !!..."

GUITARRA 2 AFINACION ESTANDARD
e|------------------------------------------------|
B|------------------------------------------------|
G|7------7----------------------------------------|
D|7--5---7--5-------------------------------------|
A|5--5---5--5-------------------------------------|
E|---3------3-------------------------------------|
"No te quiero alarmar ..."

                   X2
eb|----------------------------------|
Bb|----------------------------------|
Gb|--------7---5---------------------|
Db|7---5---7---5---5-----------------|
Ab|7---5---5---3---5-----------------|
Eb|5---3-----------3-----------------|
"Hasta ahora no he dudado de mis deseos  ...."

                X2
eb|--------------------------------|
Bb|--------------------------------|
Gb|5-------7---5-------------------|
Db|5--5----7---5--5----------------|
Ab|3--5----5---3--5----------------|
Eb|---3-----------3----------------|
"Pobre compañeroo !!..."

"Tu jardín no crecerá ..."
                                 X4
eb|-----------------------------------------|
Bb|-----------------------------------------|
Gb|-----------------------------------------|
Db|-------77--------7---------77--------7---|
Ab|-------77--------7---------77--------7---|
Eb|-55555555--5555555---55555555--5555555---|

eb|-------------------------------------|
Bb|-------------------------------------|
Gb|-------------------------------------|
Db|-----------55--------5---------33*---|
Ab|-----------55--------5---------33*---|
Eb|-----33333333--3333333---11111111*---|

* La ultima vez se repite 2 veces

SOLO GUITARRA 2

e|12-15-12------------------------------------------------------------|
B|---------15-12------------------------------------------------------|
G|---------------14-12------------------------------------------------|
D|-----------------------14--14^-12-14--------------------------------|
A|---------------------------------------12-12--12-14-12-10-12-10-10--|
E|--------------------------------------------------------------------|

* Sonido del slide: Pueden hacer ese sonidito pasando
la PUA por las cuerdas o con los .. Seguimos -->


e|--------------------12-15-12-----------------------------------|
B|15^-15^--15^-15^-------------15-12-12-15-----------------------|
G|---------------------------------------------------14^-12-14---|
D|---------------------------------------------------------------|
A|--------------------------------------------12-12-----------12-|
E|---------------------------------------------------------------|


e|-------------------------|
B|-------------------------|
G|----------12-------------| 2 Veces .. la tercera varia un poco :
D|14-12-14-----14-12-------|
A|-------------------12----|
E|-------------------------|


e|--------------------------15--13-12-10--12-10-8-7--8---|
B|-------------------12-----15--13-12-10--12-10-8-7--8---|
G|----------12----------14-------------------------------|
D|14-12-14-----14-12-------------------------------------|
A|-------------------------------------------------------|
E|-------------------------------------------------------|



X2
eb|--------------------------------|
Bb|--------------------------------|
Gb|5-------7---5-------------------|
Db|5--5----7---5--5----------------|
Ab|3--5----5---3--5----------------|
Eb|---3-----------3----------------|

             X2
eb|--------------------------------|
Bb|--------------------------------|
Gb|5-------7---5-------------------|
Db|5--5----7---5--5--7-------------|
Ab|3--5----5---3--5--7-------------|
Eb|---3-----------3--5-------------|
"Pobre compañeroo !!..."


ALGUNA DUDA O PREGUNTA ALLI ESTA MI MAIL
ARRIBA VENEZUELA Y SU GENTE EN EL MUNDOFuente: Tus acordes