a b c d e f g h i j k l m n o p q r s t u v w x y z 0-9

No Te Deseo El Bien Pero Tampoco El Mal

Panda

			
Tuning:Eb

Intro .. despues del pianito 

                    X2
eb|----------------------------------|
Bb|----------------------------------|
Gb|--------7---5---------------------|
Db|7---5---7---5---5-----------------|
Ab|7---5---5---3---5-----------------|
Eb|5---3-----------3-----------------|

Escuchen los ritmos y las repeticiones en la cancion

Verso
                  X2
eb|--------------------------------|
Bb|--------------------------------|
Gb|5-------7---5-------------------|
Db|5--5----7---5--5----------------|
Ab|3--5----5---3--5----------------|
Eb|---3-----------3----------------|
"Pobre compañeroo !!..."

e|------------------------------------------------|
B|------------------------------------------------|
G|7------7----------------------------------------|
D|7--5---7--5-------------------------------------|
A|5--5---5--5-------------------------------------|
E|---3------3-------------------------------------|
"No t quiero alarmar ..."

                   X2
eb|----------------------------------|
Bb|----------------------------------|
Gb|--------7---5---------------------|
Db|7---5---7---5---5-----------------|
Ab|7---5---5---3---5-----------------|
Eb|5---3-----------3-----------------|
"Hasta ahora no he dudado de mis deseos  ...."

                X2
eb|--------------------------------|
Bb|--------------------------------|
Gb|5-------7---5-------------------|
Db|5--5----7---5--5----------------|
Ab|3--5----5---3--5----------------|
Eb|---3-----------3----------------|
"Pobre compañeroo !!..."

"Tu jardín no crecerá ..."
                                 X4
eb|-------------------------------------------------------------------------|
Bb|-------------------------------------------------------------------------|
Gb|-------------------------------------------------------------------------|
Db|-------77--------7---------77--------7---------55--------5---------33*---|
Ab|-------77--------7---------77--------7---------55--------5---------33*---|
Eb|-55555555--5555555---55555555--5555555---33333333--3333333---11111111*---|

* La ultima vez se repite 2 veces

X2
eb|--------------------------------|
Bb|--------------------------------|
Gb|5-------7---5-------------------|
Db|5--5----7---5--5----------------|
Ab|3--5----5---3--5----------------|
Eb|---3-----------3----------------|

             X2
eb|--------------------------------|
Bb|--------------------------------|
Gb|5-------7---5-------------------|
Db|5--5----7---5--5--7-------------|
Ab|3--5----5---3--5--7-------------|
Eb|---3-----------3--5-------------|
"Pobre compañeroo !!..."

Fuente: tusacordes.com