a b c d e f g h i j k l m n o p q r s t u v w x y z 0-9

Narcista Existencial

Panda

			
Bueno aka les va esta excelente cancion y va totalmente bien
Disfurtenla!!


INTRO CON GUITARRA PALM MUTED

INTRO CON TODO:

G-------------------------------------------------------------
D-------------------------------------------------------------  X2
A------------5-5------------5-5-6-6----6-6-5-5-6-6----6-6-5-5-
E-3-3--1-3-3-----3-3--1-3-3----------6--------------6---------

PRIMER VERSO:

G-----------------------------------------------------------------
D-----------------------------------------------------------------
A----------------------5--6-6---------------------------------6-6-
E--3-3-------------------------------1--3-3-----------------------

   sabes...inseguridad    sabes...soledad  mi peor error...aceptado..

G--------------
D--------------
A--------------
E-1///13///1---

G------------------------------------------------------------------------
D------------------------------------------------------------------------X2
A----------------------------------------6-6-6-5-6-6-6-5-6-6-6-5-6-6-6-5-
E--------3-3-3-1-3-3-3-1-3-3-3-1-3-3-3-1---------------------------------

 porque ahora....                     ...miedo sigue vivo....
        baso en la.......           ..esperando que...

PRECORO:

G---------------------------------------------------------------
D---------------------------------------------------------------  X3
A-3--3--3-5--6--6-6--6-8-8----------8--10--10-10-10-10-10-10-10-
E---------------------------6--6--6-----------------------------

                              es por eso.....
                quiero ser..........
                 no poder......

G---------------------
D---------------------
A-3--3--3-5--6~~~~----
E-----------------3-3-

CORO:

G--------------------------------------------------------
D--------------------------------------------------------
A------------6--6-6-6-6-6-6-6-----------8--8-8-8-8-8-8-8-
E-3--3--3-3-------------------6--6--6-6------------------

       suponiendo...       ...gente la belleza

G--------------------------------------------------------
D--------------------------------------------------------
A------------6--6-6-6-6-6-6-6-----------8--8-8-8-8-8-5-5-
E-3--3--3-3-------------------6--6--6-6------------------

       pues belleza es la palabra.....  ..logro concretar

G---------------------------------------------------------
D---------------------------------------------------------
A--6--6--6-6-6---------------8--8--8-8-8------------------
E--------------6--6-6--6-6-6-------------3--3-3--3-3-3----

        disfraz.....      ...narcisista artificial

G------------------------------------------------------
D------------------------------------------------------
A--6--6--6-6-6---------------8-8-8-8-8-8-8-8-8---------
E--------------6--6-6--6-6-6---------------------------

       disfraz.........     .......toooodooooo es mental

INTRO:

G-------------------------------------------------------------
D-------------------------------------------------------------  X2
A------------5-5------------5-5-6-6----6-6-5-5-6-6----6-6-5-5-
E-3-3--1-3-3-----3-3--1-3-3----------6--------------6---------

SEGUNDO VERSO:

G------------------------------------------------------------------
D------------------------------------------------------------------  X4
A----------------------------------6-6-6-5-6-6-6-5-6-6-6-5-6-6-6-5-
E--3-3-3-1-3-3-3-1-3-3-3-1-3-3-3-1---------------------------------

   como me peinare.......       ...que ropa......
   tener tu interes            convertirlo en amor
     quisiera poder....         ...me vere.........
    se que es patetico             pero en mi es normal

CORO:

G--------------------------------------------------------
D--------------------------------------------------------
A------------6--6-6-6-6-6-6-6-----------8--8-8-8-8-8-8-8-
E-3--3--3-3-------------------6--6--6-6------------------

       suponiendo...       ...gente la belleza

G--------------------------------------------------------
D--------------------------------------------------------
A------------6--6-6-6-6-6-6-6-----------8--8-8-8-8-8-5-5-
E-3--3--3-3-------------------6--6--6-6------------------

       pues belleza es la palabra.....  ..logro concretar

G---------------------------------------------------------
D---------------------------------------------------------
A--6--6--6-6-6---------------8--8--8-8-8------------------
E--------------6--6-6--6-6-6-------------3--3-3--3-3-3----

        disfraz.....      ...narcisista artificial

G------------------------------------------------------
D------------------------------------------------------
A--6--6--6-6-6---------------8-8-8-8-8-8-8-8-8---------
E--------------6--6-6--6-6-6---------------------------

       disfraz.........     .......toooodooooo es mental

INTERLUDE:

G--------------------
D-------------------- X 2
A--------6~~~--------
E-3~~~~~~----6~~~~~~-

G-----------------------------------------
D-----------------------------------------
A-----------------6-6-6-6-----------------
E-3-3-3-3-3-3-3-3---------6-6-6-6-6-6-6-6-

G---------------------------------
D---------------------------------
A-----------------6-6-6-6---------
E-3-3-3-3-3-3-3-3---------6-6-6-6-

PUNTEO:

G--------------------------------------------------------
D--------------------------------------------------------
A------------6--6-6-6-6-6-6-6-----------8--8-8-8-8-8-8-8-
E-3--3--3-3-------------------6--6--6-6------------------


G--------------------------------------------------------
D--------------------------------------------------------
A------------6--6-6-6-6-6-6-6-----------8--8-8-8-8-8-5-5-
E-3--3--3-3-------------------6--6--6-6------------------


G---------------------------------------------------------
D---------------------------------------------------------
A--6--6--6-6-6---------------8--8--8-8-8-----------5-5----
E--------------6--6-6--6-6-6-------------3--3-3--3--------


G------------------------------------------------------------
D------------------------------------------------------------
A--6--6--6-6-6---------------8-8-8-8-8-8-8-8-8-8-8-8-8-8-8-8-
E--------------6--6-6--6-6-6---------------------------------

CORO CON PUNTEO DETRAS:

G--------------------------------------------------------
D--------------------------------------------------------
A------------6--6-6-6-6-6-6-6-----------8--8-8-8-8-8-8-8-
E-3--3--3-3-------------------6--6--6-6------------------

       suponiendo...       ...gente la belleza

G--------------------------------------------------------
D--------------------------------------------------------
A------------6--6-6-6-6-6-6-6-----------8--8-8-8-8-8-5-5-
E-3--3--3-3-------------------6--6--6-6------------------

       pues belleza es la palabra.....  ..logro concretar

G---------------------------------------------------------
D---------------------------------------------------------
A--6--6--6-6-6---------------8--8--8-8-8------------------
E--------------6--6-6--6-6-6-------------3--3-3--3-3-3----

        disfraz.....      ...narcisista artificial

G------------------------------------------------------
D------------------------------------------------------
A--6--6--6-6-6---------------8-8-8-8-8-8-8-8-8---------
E--------------6--6-6--6-6-6---------------------------

       disfraz.........     .......toooodooooo es mental

FIN!!!!!

~ let ring     / slide

Bueno eso es todo.......espero q les guste........
esta 100 correcta..ni una nota mas ni una nota menos
...esta cancion va para el durito..jajaj..bueno
...q viva panda!
..q viva COLOMBIA!!
..y q viva AkRoAmA!!!!..el mejor grupo de neo en decadas!Fuente: Tus acordes