a b c d e f g h i j k l m n o p q r s t u v w x y z 0-9

Narcisista Por Excelencia

Panda

			
Esta afinada en la entonacion normal si la tienen en bemol
solo token un traste abajo en ves del 3 el 4

Introdespues de la guitarra entra el bajo i la bataka:

E|-33-1-33----33-1-33------6-------6------|
A|---------55---------5566--665566--6655--|
D|----------------------------------------| x2
G|----------------------------------------|

Verso:

Sabes Que es la...
E|--33-|------|-1-33-|-----|1/10|
A|-----|-5-66-|------|-66--|----|
D|-----|------|------|-----|----|
G|-----|------|------|-----|----|

Porque Ahora ya no tengo..
E|--1-333-|  |------|
A|--------|  |-5666-|
D|--------|x4|------|x4
G|--------|  |------|

Yo me vaso en la apariencia..
E|--1-333-|  |------|
A|--------|  |-5666-|
D|--------|x4|------|x4
G|--------|  |------|

                              PRE-CORO:

fijes en mi..                 Es Por Eso...
      E|-3333-------|--66666-|--------------|
      A|-----566666-|-8------|-8-1010101010-|x3  <----es el traste 10
      D|------------|--------|--------------|         no el 1 y 0
      G|------------|--------|--------------|

E|-3333-----|
A|------56~-|
D|----------|
G|----------|

CORO:

Suponiendo Que la gente...
E|--3333-|------|-6666-|-------|
A|-------|-6666-|------|-8888--|
D|-------|------|------|-------| x2
G|-------|------|------|-------|

Disfraz...
E|-33333333-|----------|-66666666-|----------|
A|----------|-66666666-|----------|-88888888-|
D|----------|----------|----------|----------|
G|----------|----------|----------|----------|

Disfraz...             ...todo es Mental
E|-33333333-|----------|-6-6-6-6|---|
A|----------|-66666666-|--------|-8-|
D|----------|----------|--------|---|
G|----------|----------|--------|---|

Intro x2

VERSO II:

Como me peinare..
E|-1-38-|---------|
A|--------|-5-68--|x2
D|--------|---------|
G|--------|---------|

Quisiera poder saber..
E|--1-333-|  |------|
A|--------|  |-5666-|
D|--------|x4|------|x4
G|--------|  |------|

Se Que es Patetico...
E|--1-333-|  |------|
A|--------|  |-5666-|
D|--------|x4|------|x4
G|--------|  |------|

CORO:

Suponiendo Que la gente...
E|--3333-|------|-6666-|-------|
A|-------|-6666-|------|-8888--|
D|-------|------|------|-------| x2
G|-------|------|------|-------|

Disfraz...
E|-33333333-|----------|-66666666-|----------|
A|----------|-66666666-|----------|-88888888-|
D|----------|----------|----------|----------|
G|----------|----------|----------|----------|

Disfraz...             ...todo es Mental
E|-33333333-|----------|-6-6-6-6|---|
A|----------|-66666666-|--------|-8-|
D|----------|----------|--------|---|
G|----------|----------|--------|---|

Solo De Teclado:

E|--3-|---|-6-|---|
A|----|-6-|---|-8-|
D|----|---|---|---| x2
G|----|---|---|---|

INTRO DE SOLO DE GUITARRA:

E|-3-3-3-3-|---------|-6-6-6-6-|---------|
A|---------|-6-6-6-6-|---------|-8-8-8-8-|
D|---------|---------|---------|---------| x2
G|---------|---------|---------|---------|

SOLO DE GUITARRA:

E|-33333333-|----------|-66666666-|----------|
A|----------|-66666666-|----------|-88888888-|
D|----------|----------|----------|----------| x4
G|----------|----------|----------|----------|

CORO FINAL:

Suponiendo Que la gente...
E|--3333-|------|-6666-|-------|
A|-------|-6666-|------|-8888--|
D|-------|------|------|-------| x2
G|-------|------|------|-------|

Disfraz...
E|-33333333-|----------|-66666666-|----------|
A|----------|-66666666-|----------|-88888888-|
D|----------|----------|----------|----------|
G|----------|----------|----------|----------|

Disfraz...             ...todo es Mental
E|-33333333-|----------|-6-6-6-6|----|
A|----------|-66666666-|--------|-8/1|
D|----------|----------|--------|----|
G|----------|----------|--------|----|Fuente: Tus acordes