a b c d e f g h i j k l m n o p q r s t u v w x y z 0-9

Narcisista Por Excelencia

Panda

G
D
D#
F
C
			
Intro:

e|---------------------|------------------|
B|---------------------|------------------|
G|---------------------|------------------|
D|---------------------|------------------|
A|------------5-5------|--------5-5-6-6---|
E|--3-3-1-3-3-----3-3--|--1-3-3-----------|


e|---------------------------||
B|---------------------------||
G|---------------------------||
D|---------------------------||
A|---6-6-5-5-6-6---6-6-5-5---||
E|-6-------------6-----------||


Aki ya son Acordes de Poder ...

e|---------------------|------------------|
B|---------------------|------------------|
G|---------------------|------------------|
D|---------------------|------------------|
A|------------5-5------|--------5-5-6-6---|
E|--3-3-1-3-3-----3-3--|--1-3-3-----------|


e|--------------------------||
B|--------------------------||
G|--------------------------||
D|--------------------------||
A|---6-6-5-5-6-6---6-6-5-5--||
E|-6------------6-----------||


Luego se repite todo otra vez?.




[[[???Estos acordes ke siguen son a manera de corte
y por eso se repiten...?????]]]


G G                          D
Sabes que es la inseguridad

D# D#                       F G G
sabes lo que es sentir la soledad

                            D D
mi peor error fue haber aceptado mi fealdad



:::::::::::::Esto va normal en Acordes de Poder::::::::::


         G
Por que ahora ya no tengo donde esconder el miedo

     D#
y el miedo sigue vivo se la vive aqui conmigo

       G
yo me baso en la apariencia complacer y sin conciencia

    D#
esperando que algun día tu atención fijes en Mi 


:::::::Bueno los acordes de la otra estrofa
       son en ?Notas de Poder? y en piezan en
       ?Tu atencion fijes en MI? pero lo voy A 
       escribir en tablaturas para ke se entienda bn?..

Es por eso que ahora visto asi
quiero ser elegante y estilero hasta el fin
no podre proyectarlo me lo tengo que creer


e|------------------||
B|------------------||
G|------------------||
D|------------------||
A|-3-5-6-8---8-10---||
E|---------6--------|| [x2]


e|------------------||
B|------------------||
G|------------------||
D|------------------||
A|-3-5-6------------||
E|------------------||
e|-------------------------||
B|-------------------------||
G|-------------------------||
D|----ESTO ES UN CORTE-----||
A|---------EN ?FA?---------||
E|-1-1---------------------||



G       D#              A#         F             G
  Suponiendo que en la gente la belleza es natural

       D#             A#               F       F F D#
pues belleza es la palabra que aun no logro concretar


     A#      C
Disfraz Disfraz

     G             D#
narcisista artificial

    A#       C
disfraz disfraz

C    C
todo es mental



e|---------------------|------------------|
B|---------------------|------------------|
G|---------------------|------------------|
D|---------------------|------------------|
A|------------5-5------|--------5-5-6-6---|
E|--3-3-1-3-3-----3-3--|--1-3-3-----------|


e|---------------------------||
B|---------------------------||
G|---------------------------||
D|---------------------------||
A|---6-6-5-5-6-6---6-6-5-5---||
E|-6-------------6-----------||


Como me peinare esta noche
que ropa me combinara mejor
tener tu interes
convertirlo en amor

Quisiera poder saber que piensas
me vere bien o caso me veo mal
se que es patetico pero en mi es normal



G       D#              A#         F             G
  Suponiendo que en la gente la belleza es natural

       D#             A#               F       F F D#
pues belleza es la palabra que aun no logro concretar


     A#      C
Disfraz Disfraz

     G             D#
narcisista artificial

    A#       C
disfraz disfraz

C    C
todo es mental



PUNTEO:

e|---------------|-----------|-------||
B|-11----11------|-11----11--|-16-15-||
G|----12----10---|----12-----|-------||
D|---------------|-----------|-------||
A|---------------|-----------|-------||
E|---------------|-----------|-------||


e|-------------------||
B|-11-10-------------||
G|-------12-10-12----||
D|----------------12-||
A|-------------------||
E|-------------------|| [X3 Veces]


e|-------------------||
B|-------------------||
G|-------------------||
D|-13-15-13-12-13-12-||
A|-------------------||
E|-------------------||


e|-------------------||
B|-11-10-------------||
G|-------12-10-12----||
D|----------------12-||
A|-------------------||
E|-------------------|| [X3 Veces]


e|-------------------||
B|-------------------||
G|-------------------||
D|-13-15-13-12-13-12-||
A|-------------------||
E|-------------------||


e|-----------------11-10-----||
B|-11-10-----------------11--||
G|-------12-10-12------------||
D|---------------------------||
A|---------------------------||
E|---------------------------||

e|-----------------11-10-11-13-10-10-||
B|-11-10-----------------------------||
G|-------12-10-12--------------------||
D|-----------------------------------||
A|-----------------------------------||
E|-----------------------------------||

e|-----------------11-10-----||
B|-11-10-----------------11--||
G|-------12-10-12------------||
D|---------------------------||
A|---------------------------||
E|---------------------------||



G       D#              A#         F             G
  Suponiendo que en la gente la belleza es natural

       D#             A#               F       F F D#
pues belleza es la palabra que aun no logro concretar


     A#      C
Disfraz Disfraz

     G             D#
narcisista artificial

    A#       C
disfraz disfraz

C    C
todo es mental

Fuente: tusacordes.com