a b c d e f g h i j k l m n o p q r s t u v w x y z 0-9

Narcisista Por Excelencia

Panda

			
Bueno la neta nomas me se el intro y unas partesillas lo demas me da flojera sacarlo XD pero ps suena exactamente igual y esta muy facil, 
bueno para empesar el intro es con palm mute:

Intro:
    |---------------------Palm Mute-------------------------| 
 
e |-----------------------------------------------------------|
B |-----------------------------------------------------------|
G |--------------------??--------------------------------------|
D |-----------------------------------------------------------|X2
A |------------5-5-----------5-5-6-6---6-6-5-5-6-6---6-6-5-5--|
E |--3-3-1-3-3-----3-3-1-3-3---------5-------------5----------|

Despues se repiten los tonos del intro pero convertidos en acordes y con distorsion:

e |-----------------------------------------------------------|
B |-----------------------------------------------------------|
G |------------7-7-------??---7-7-8-8---8-8-7-7-8-8---8-8-7-7--|
D |--5-5-3-5-5-7-7-5-5-3-5-5-7-7-8-8-7-8-8-7-7-8-8-7-8-8-7-7--|X2
A |--5-5-3-5-5-5-5-5-5-3-5-5-5-5-6-6-7-6-6-5-5-6-6-7-6-6-5-5--|
E |--3-3-1-3-3-----3-3-1-3-3---------5-------------5----------|

e |-------|
B |-------|
G |-------|         Sabes que es la inseguridad...
D |--5-5--| 
A |--5-5--|
E |--3-3--|

e |-----------|
B |-----------|
G |--7/8-8-8--|     Sabes Lo que es sentir la soledad...
D |--7/8-8-8--| 
A |--5/6-6-6--|
E |-----------|

e |-----------|
B |-----------|
G |-----------|     mi peor error fue haber...
D |--3/5-5-5--| 
A |--3/5-5-5--|
E |--1/3-3-3--|

e |-------|
B |-------|
G |--7-7--|    
D |--7-7--|         Aceptado mi fealdaaaadd...
A |--5-5--|
E |-------|

e |---------|
B |---------|
G |---------|    
D |--5/9/5--|       Porque ahora ya no tengo donde...
A |--5/9/5--|
E |--3/7/3--|

La neta esta parte no es asi pero ps suena casi igual nomas le cambian algunas cosas:
e |-----------------------------------------------------------|
B |-----------------------------------------------------------|
G |------------7-7-------??---7-7-8-8---8-8-7-7-8-8---8-8-7-7--|
D |--5-5-3-5-5-7-7-5-5-3-5-5-7-7-8-8-7-8-8-7-7-8-8-7-8-8-7-7--|X2
A |--5-5-3-5-5-5-5-5-5-3-5-5-5-5-6-6-7-6-6-5-5-6-6-7-6-6-5-5--|
E |--3-3-1-3-3-----3-3-1-3-3---------5-------------5----------|

e |-----------------------------|
B |-----------------------------|
G |--5--5--7--8--10--10--11-----|
D |--5--5--7--8--10--10--11--7--|
A |--3--3--5--6--8---8---9---7--|
E |--------------------------5--|

El solo es asi:
e|--------------------------------------------------------------|
B|-11-10------------11-10-----------11-10-----------------------|
G|-------12-9-12-7?-------12??9-12-7?------12-9-12-7-8-10-8-7-7--|
D|--------------------------------------------------------------|
A|--------------------------------------------------------------|
E|--------------------------------------------------------------|
                                                              X2

e|---------------11-10-------------------11-10-11-13^-11-10-----|
B|-11-10----------------9?-11-10--------------------------------|
G|-------12-9-12-------??---------12-9-12------------------------|
D|--------------------------------------------------------------|
A|--------------------------------------------------------------|
E|--------------------------------------------------------------|

e|---------------11-10------------------------------------------|
B|-11-10----------------9?--9-11-12-----------------------------|
G|-------12-9-12-------??------------10-12-13--------------------|
D|-------------------------------------------11-13-14-----------|
A|----------------------------------------------------12-14-15--|
E|--------------------------------------------------------------|

Todo el solo se repite dos veces, bueno esto es todo lo que me se espero que les sirva porque me pase toda la noche asciendolo XP, alguna duda y me contactan.

Fuente: tusacordes.com