a b c d e f g h i j k l m n o p q r s t u v w x y z 0-9

Narcisista Por Excelencia

Panda

			
NARCISISTA POR EXELENCIA


Afinación Bemol

Pre-Intro

D#|------------------------|-------------------------|
A#|------------------------|-------------------------|
F#|------------------------|-------------------------|
C#|------------------------|-------------------------|
G#|------------------6--6--|-------------------6--6--|
D#|--4--4---2--4--4--------|---4--4---2--4--4--------|

--------------------------|--------------------------|
--------------------------|--------------------------|
--------------------------|--------------------------|
--------------------------|--------------------------|
--7--7--------7--7--6--6--|--7--7--------7--7--6--6--|
-----------7--------------|-----------7--------------| x2
Intro
--------------------------|--------------------------|
--------------------------|--------------------------|
--------------------8--8--|--------------------8--8--|
--6--6-----4--6--6--8--8--|--6--6-----4--6--6--8--8--|
--6--6-----4--6--6--6--6--|--6--6-----4--6--6--6--6--|
--4--4-----2--4--4--------|--4--4-----2--4--4--------|




-----------------------------|--------------------------|
-----------------------------|--------------------------|
--9--9--------9--9--8--8--|--9--9--------9--9--8--8--|
--9--9-----9--9--9--8--8--|--9--9-----9--9--9--8--8--|
--7--7-----9--7--7--6--6--|--7--7-----9--7--7--6--6--|
------------7----------------|------------7--------------| x2








Verso 1
-----------------------------------------------------|
-----------------------------------------------------|
-----------------------------------------------------|
--6--6-----------------------------------------------|
--6--6-----------------------------------------------|
--4--4-----------------------------------------------|


¿Sabes qué es la inseguridad?,

-----------------------------------------------------|
-----------------------------------------------------|
---8---9--9------------------------------------------|
---8---9--9------------------------------------------|
---6---7--7------------------------------------------|
-----------------------------------------------------|
¿Sabes lo que es sentir la soledad?

------------------|--------------|-------------------|
------------------|--------------|-------------------|
------------------|--9--9--------|-------------------|
---4---6--6-------|--9--9--------|-------------------|
---4---6--6-------|--7--7--------|---4/164----------|
---2---4--4-------|--------------|---2/142----------|
Mi peor error fue haber aceptado mi fealdad

--------------------------|--------------------------|
--------------------------|--------------------------|
--------------------------|--------------------------|
--6--6--6--4--6--6--6--4--|--6--6--6--4--6--6--6--4--|
--6--6--6--4--6--6--6--4--|--6--6--6--4--6--6--6--4--|
--4--4--4--2--4--4--4--2--|--4--4--4--2--4--4--4--2--|
Porque ahora ya no tengo donde esconder el miedo

--------------------------|--------------------------|
--------------------------|--------------------------|
--9--9--9--8--9--9--9--8--|--9--9--9--8--9--9--9--8--|
--9--9--9--8--9--9--9--8--|--9--9--9--8--9--9--9--8--|
--7--7--7--6--7--7--7--6--|--7--7--7--6--7--7--7--6--|
--------------------------|--------------------------|
Y el miedo sigue vivo, se la vive aquí conmigo



--------------------------|--------------------------|
--------------------------|--------------------------|
--------------------------|--------------------------|
--6--6--6--4--6--6--6--4--|--6--6--6--4--6--6--6--4--|
--6--6--6--4--6--6--6--4--|--6--6--6--4--6--6--6--4--|
--4--4--4--2--4--4--4--2--|--4--4--4--2--4--4--4--2--|
Yo me baso en la apariencia, con placer y sin conciencia









--------------------------|--------------------------|
--------------------------|--------------------------|
--9--9--9--8--9--9--9--8--|--9--9--9--8--9--9--9--8--|
--9--9--9--8--9--9--9--8--|--9--9--9--8--9--9--9--8--|
--7--7--7--6--7--7--7--6--|--7--7--7--6--7--7--7--6--|
--------------------------|--------------------------|
Esperando que algún día tu atención fijes en mi

----------------------------------------------------------------|
----------------------------------------------------------------|
-6?-6--6?-8--9--9--11--11--11-----------11--11--11--13--13--13--|
-6?-6--6?-8--9--9--11--11--11--9--9--9--11--11--11--13--13--13--|
-4-?4-?4--6--7--7--9---9---9---9--9?-9---9---9---9--11--11--11--|
-------------------------------7--7--7--------------------------|
                          Es por eso que ahora visto

----------------------------------------------------------------|
----------------------------------------------------------------|
-6?-6--6?-8--9--9--11--11--11-----------11--11--11--13--13--13--|
-6?-6--6?-8--9--9--11--11--11--9--9--9--11--11--11--13--13--13--|
-4-?4-?4--6--7--7--9---9---9---9--9?-9---9---9---9--11--11--11--|
-------------------------------7--7--7--------------------------|
así                   Quiero ser elegante y estilero



----------------------------------------------------------------|
----------------------------------------------------------------|
-6?-6--6?-8--9--9--11--11--11-----------11--11--11--13--13--13--|
-6?-6--6?-8--9--9--11--11--11--9--9--9--11--11--11--13--13--13--|
-4-?4-?4--6--7--7--9---9---9---9--9?-9---9---9---9--11--11--11--|
-------------------------------7--7--7--------------------------|
hasta el fin       No podré proyectarlo, me lo tengo

--------------------|-------------------------|
--------------------|-------------------------|
---6--6--6--8--9----|-------------------------|
---6--6--6--8--9----|------------4--4---------|
---4--4--4--6--7----|------------4--4---------|
--------------------|------------2--2---------|
que creer





Pre-Coro
-----------------------------------------------------------------|
-----------------------------------------------------------------|
----------------9--9--9--9--9--------------------11?-11-?11?-11--|
--6--6--6--6----9--9--9--9--9----9--9--9--9--9---11?-11?-11?-11--|
--6--6--6--6----7--7--7--7--7----9--9--9--9--9----9---9?--9---9--|
--4--4--4--4---------------------7--7--7--7--7-------------------|
Suponiendo que en la gente la belleza es natural








-----------------------------------------------------------------|
-----------------------------------------------------------------|
----------------9--9--9--9--9--------------------11?-11-?11?-11--|
--6--6--6--6----9--9--9--9--9----9--9--9--9--9---11?-11?-11?-11--|
--6--6--6--6----7--7--7--7--7----9--9--9--9--9----9---9?--9---9--|
--4--4--4--4---------------------7--7--7--7--7-------------------|

Pues belleza es la palabra que aún no logro concretar


          Coro
--------|----------------------------------------------------------|
--------|----------------------------------------------------------|
--------|--9--9--9--9-----------------11--11--11--11---------------|
--4--4--|--9--9--9--9----9--9--9--9---11--11--11--11---6?-6?-6--6--|
--4--4--|--7--7--7--7----9--9--9?-9----9---9---9---9---6?-6?-6?-6--|
--2--2--|----------------7?-7-?7-?7--------------------4--4?-4-?4--|
         Disfraz, disfraz, narcisista artificial

-------------------------------------------------------------------|
-------------------------------------------------------------------|
----9--9--9--9-------------------11--11--11--11--11--11--11--0----|
----9--9--9--9-----9--9--9--9----11--11--11--11--11--11?-11--0----|
----7--7--7--7-----9--9--9?-9-----9---9---9---9---9---9---9--0----|
-------------------7?-7-?7-?7--------------------------------------|
Disfraz, disfraz, todo es mental

Intro
--------------------------|--------------------------|
--------------------------|--------------------------|
--------------------8--8--|--------------------8--8--|
--6--6-----4--6--6--8--8--|--6--6-----4--6--6--8--8--|
--6--6-----4--6--6--6--6--|--6--6-----4--6--6--6--6--|
--4--4-----2--4--4--------|--4--4-----2--4--4--------|

--------------------------|--------------------------|
--------------------------|--------------------------|
--9--9--------9--9--8--8--|--9--9--------9--9--8--8--|
--9--9-----9--9--9--8--8--|--9--9-----9--9--9--8--8--|
--7--7-----9--7--7--6--6--|--7--7-----9--7--7--6--6--|
-----------7--------------|-----------7--------------| x2

Verso 2 (se toca con Wha-wha on)
--------------------------|--------------------------|
--------------------------|--------------------------|
--9--9--9--8--8--8--------|--------------------------|
--------------------9--9--|--6--6--6--6--6--6--6--6--|
--------------------------|--------------------------|
--------------------------|--------------------------|
¿Cómo me peinaré esta noche?

--------------------------|----------------------------------|
--------------------9--9--|--11--11--11--12--12--12--11--11--|
--9--9--9--8--8--8--------|----------------------------------|
--------------------------|----------------------------------|
--------------------------|----------------------------------|
--------------------------|----------------------------------|
¿Qué ropa me combinará mejor?

--------------------------|--------------------------|
--------------------------|--------------------------|
--9--9--9--8--8--8--------|--------------------------|
--------------------9--9--|--6--6--6--6--6--6--6--6--|
--------------------------|--------------------------|
--------------------------|--------------------------|
Tener tu interés,

--------------------------|----------------------------------|
--------------------9--9--|--11--11--11--12--12--12--11--11--|
--9--9--9--8--8--8--------|----------------------------------|
--------------------------|----------------------------------|
--------------------------|----------------------------------|
--------------------------|----------------------------------|
convertirlo en amor

--------------------------|--------------------------|
--------------------------|--------------------------|
--9--9--9--8--8--8--------|--------------------------|
--------------------9--9--|--6--6--6--6--6--6--6--6--|
--------------------------|--------------------------|
--------------------------|--------------------------|
Quisiera poder saber qué piensas

--------------------------|----------------------------------|
--------------------9--9--|--11--11--11--12--12--12--11--11--|
--9--9--9--8--8--8--------|----------------------------------|
--------------------------|----------------------------------|
--------------------------|----------------------------------|
--------------------------|----------------------------------|
Me veré bien, o acaso me veo mal

--------------------------|--------------------------|
--------------------------|--------------------------|
--9--9--9--8--8--8--------|--------------------------|
--------------------9--9--|--6--6--6--6--6--6--6--6--|
--------------------------|--------------------------|
--------------------------|--------------------------|
Se que es patético,
                                                             Wha-wha of
--------------------------|-----------------------------------|
--------------------9--9--|--11--11--11--12--12--12--14?-14b--|
--9--9--9--8--8--8--------|-----------------------------------|
--------------------------|-----------------------------------|
--------------------------|-----------------------------------|
--------------------------|-----------------------------------|
pero en mi es normal
Pre-Coro
-----------------------------------------------------------------|
-----------------------------------------------------------------|
----------------9--9--9--9--9--------------------11?-11-?11?-11--|
--6--6--6--6----9--9--9--9--9----9--9--9--9--9---11?-11?-11?-11--|
--6--6--6--6----7--7--7--7--7----9--9--9--9--9----9---9?--9---9--|
--4--4--4--4---------------------7--7--7--7--7-------------------|
Suponiendo que en la gente la belleza es natural

-----------------------------------------------------------------|
-----------------------------------------------------------------|
----------------9--9--9--9--9--------------------11?-11-?11?-11--|
--6--6--6--6----9--9--9--9--9----9--9--9--9--9---11?-11?-11?-11--|
--6--6--6--6----7--7--7--7--7----9--9--9--9--9----9---9?--9---9--|
--4--4--4--4---------------------7--7--7--7--7-------------------|
Pues belleza es la palabra que aún no logro concretar

          Coro
--------|----------------------------------------------------------|
--------|----------------------------------------------------------|
--------|--9--9--9--9-----------------11--11--11--11---------------|
--4--4--|--9--9--9--9----9--9--9--9---11--11--11--11---6?-6?-6--6--|
--4--4--|--7--7--7--7----9--9--9?-9----9---9---9---9---6?-6?-6?-6--|
--2--2--|----------------7?-7-?7-?7--------------------4--4?-4-?4--|
         Disfraz, disfraz, narcisista artificial




-------------------------------------------------------------------|
-------------------------------------------------------------------|
----9--9--9--9-------------------11--11--11--11--11--11--11--0----|
----9--9--9--9-----9--9--9--9----11--11--11--11--11--11?-11--0----|
----7--7--7--7-----9--9--9?-9-----9---9---9---9---9---9---9--0----|
-------------------7?-7-?7-?7--------------------------------------|
Disfraz, disfraz, todo es mental

Puente Piano
Figura Adaptada a Guitarra 1
--4----6--7--4--6--7--|--4----6--7--4--6--7--|--4----6--7--4--6--7--|
----------------------|----------------------|----------------------|
----------------------|----------------------|----------------------|
----------------------|----------------------|----------------------|
----------------------|----------------------|----------------------|
----------------------|----------------------|----------------------|

-----6--7-----6--7----|-----6--7-----6--7----|
-7--------7-----------|-7--------7-----------|
----------------------|----------------------|
----------------------|----------------------|
----------------------|----------------------|
----------------------|----------------------| x4
Figura Adaptada a Guitarra 2
estas dos figuras se tocan al mismo tiempo
---19--19--19--19--|---16--16--16--16--|---19--19?-19?-19--|
-------------------|-------------------|-------------------|
-------------------|-------------------|-------------------|
-------------------|-------------------|-------------------|
-------------------|-------------------|-------------------|
-------------------|-------------------|-------------------|

---14--14--14--14--|---14--14--14?-14--|
-------------------|-------------------|
-------------------|-------------------|
-------------------|-------------------|
-------------------|-------------------|
-------------------|-------------------|x4


En la vuelta no. 3 del puente entra la guitarra
------------|-----------|----------|----------|------------|
------------|-----------|----------|----------|------------|
---16~------|---13~-----|---16~----|--11~-----|------------|
------------|-----------|----------|----------|------------|
--14~-----|--11~----| --14~--|--9~----|------------|
------------|-----------|----------|----------|------------|

------------|-----------|----------|---14~----|------------|
------------|-----------|----------|----------|------------|
---16~------|---13~-----|---16~----|--11~---|------------|
------------|-----------|----------|----------|------------|
--14~-----|--11~----| --14~--|----------|------------|
------------|-----------|----------|----------|------------|






Solo
--7--6-------------|--7--6-------------|--7--6-------------|
-------9--7--9-----|-------9--7--9-----|-------9--7--9-----|
----------------8~-|----------------8~-|----------------8~-|
-------------------|-------------------|-------------------|
-------------------|-------------------|-------------------|
-------------------|-------------------|-------------------|

-------------------------|
-------------------------|
--9--11----9---8~--9--8--|
-------------------------|
-------------------------|
-------------------------|

--7--6-------------|--7--6-------------|--7--6-------------|
-------9--7--9-----|-------9--7--9-----|-------9--7--9-----|
----------------8~-|----------------8~-|----------------8~-|
-------------------|-------------------|-------------------|
-------------------|-------------------|-------------------|
-------------------|-------------------|-------------------|

-------------------------|
-------------------------|
--9--11----9---8~--9--8--|
-------------------------|
-------------------------|
-------------------------|




----------------12-12-12-12-11-11--11-11--------------------------|
-12-11----------------------------------12-12-12-12-12-12--12-12--|
-------13-11-13---------------------------------------------------|
------------------------------------------------------------------|
------------------------------------------------------------------|
------------------------------------------------------------------|

----------------12-12-12-11-11-11-12-12-12-14-14-14-12-12-11-11-11-|
-12-11-------------------------------------------------------------|
-------13-11-13----------------------------------------------------|
-------------------------------------------------------------------|
-------------------------------------------------------------------|
-------------------------------------------------------------------|

----------------12-12-12-12-11-11--11-11--------------------------|
-12-11----------------------------------12-12-12-12-12-12--12-12--|
-------13-11-13---------------------------------------------------|
------------------------------------------------------------------|
------------------------------------------------------------------|
------------------------------------------------------------------|


--7--6-----6---------------------------------------------------|
--------9-----9--7--9--7----7----------------------------------|
--------------------------9----9--8--9--8--6--8--6----6--------|
----------------------------------------------------9-----9----|
------------------------------------------------------------9b-|
---------------------------------------------------------------|

Pre-Coro se toca el solo y el Riff juntos
--7--6-------------|--7--6-------------|--7--6-------------|
-------9--7--9-----|-------9--7--9-----|-------9--7--9-----|
----------------8~-|----------------8~-|----------------8~-|
-------------------|-------------------|-------------------|
-------------------|-------------------|-------------------|
-------------------|-------------------|-------------------|
Suponiendo que en la gente

-------------------------|
-------------------------|
--9--11----9---8~--9--8--|
-------------------------|
-------------------------|
-------------------------|
la belleza es natural

--7--6-------------|--7--6-------------|--7--6-------------|
-------9--7--9-----|-------9--7--9-----|-------9--7--9-----|
----------------8~-|----------------8~-|----------------8~-|
-------------------|-------------------|-------------------|
-------------------|-------------------|-------------------|
-------------------|-------------------|-------------------|






Pues belleza es la palabra que

-------------------------|
-------------------------|
--9--11----9---8~--9--8--|
-------------------------|
-------------------------|
-------------------------|
aún no logro concretar

----------------12-12-12-12-11-11--11-11--------------------------|
-12-11----------------------------------12-12-12-12-12-12--12-12--|
-------13-11-13---------------------------------------------------|
------------------------------------------------------------------|
------------------------------------------------------------------|
------------------------------------------------------------------|





Disfraz, disfraz,

----------------12-12-12-11-11-11-12-12-12-14-14-14-12-12-11-11-11-|
-12-11-------------------------------------------------------------|
-------13-11-13----------------------------------------------------|
-------------------------------------------------------------------|
-------------------------------------------------------------------|
-------------------------------------------------------------------|
narcisista artificial

----------------12-12-12-12-11-11--11-11--------------------------|
-12-11----------------------------------12-12-12-12-12-12--12-12--|
-------13-11-13---------------------------------------------------|
------------------------------------------------------------------|
------------------------------------------------------------------|
------------------------------------------------------------------|
Disfraz, disfraz,





--7--6-----6------------------------------------------------------|
--------9-----9--7--9--7----7-------------------------------------|
--------------------------9----9?4/0------------------------------|
------------------------------------------------------------------|
------------------------------------------------------------------|
------------------------------------------------------------------|
                             todo es mental?

Fuente: tusacordes.com