a b c d e f g h i j k l m n o p q r s t u v w x y z 0-9

Narcisista Por Excelencia

Panda

			
Afinada en bemol

0:00 Intro1

e/--------------/-------------/------------/------------/
b/--------------/-------------/------------/------------/
g/--------------/-------------/------------/------------/
D/--------------/-------------/------------/------------/x2
A/------------6-/-----------6-/-7--7--7--6-/-7--7--7--6-/
E/-4--4--2--4---/4--4--2--4---/------7-----/------7-----/

0:11 Intro2

e/--------------/--------------/--------------/--------------/
b/--------------/--------------/--------------/--------------/
g/-------------8/-------------8/-9--9-----8--8/-9--9-----9--8/
D/-6--6--4--6--8/-6--6--4--6--8/-9--9--9--9--8/-9--9--9--9--8/4x
A/-6--6--4--6--6/-6--6--4--6--6/-7--7--9--7--6/-7--7--9--7--6/
E/-4--4--2--4---/-4--4--2--4---/-------7------/-------7------/

0:22 Sabes que es la inseguridad....aceptado mi fealdad

e/------/--------/--------/------/----------------/
b/------/--------/--------/------/----------------/
g/------/-8--9?9-/--------/--9---/-----8h9--------/
D/-6--6-/-8--9?9-/-4--6?6-/--9---/-4h6-8h9-6h4----/
A/-6--6-/-6--7?7-/-4--6?6-/--7---/-4h6-6h7-6h4----/
E/-4--4-/--------/-2--4?4-/------/-2h4-----4h2----/

0:34 Porque ahora yo no tengo...

e/---------/    /-----------/
b/---------/    /-----------/
g/---------/4x  /-8?9-9-9---/x4
D/-4?6?6?6-/    /-8?9-9-9---/
A/-4?6?6?6-/    /-6?7-7-7---/
E/-2?4?4?4-/    /-----------/


0:46 En mi...

e/---------------------------------/
b/---------------------------------/
g/--6?6?6-8-9999--11-----11--11h13-/
D/--6?6?6-8-9999--11--9--11--11h13-/3x la cuarta vez
A/--4?4?4-6-7777--9---9--9---9h11--/es diferente
E/--------------------7------------/


e/---------------------/
b/---------------------/
g/--6-6-6-8-9----------/
D/--6-6-6-8-9---4-4----/
A/--4-4-4-6-7---4-4----/
E/--------------2-2----/


1:08 CORO:
Suponiendo que en la gente??

e/----------------------------/
b/----------------------------/
e/---------999999----------11-/
D/-666666--999999--999999--11-/
A/-666666--777777--999999--9--/
E/-444444----------777777-----/

Pues belleza es la palabra??
e/---------------------------------------/
b/---------------------------------------/
e/----------99999999-----------11--9?-8--/
D/-6666666--99999999--9999999--11--9?-8--/
A/-6666666--77777777--9999999--9---7?-6--/
E/-4444444------------7777777------------/



1:20 Disfraz, disfraz, narcisista artificial ...todo es mental?

e/---------------------------------/--------------------------/
b/---------------------------------/--------------------------/
g/-99999------------11-11-11-------/-999999-------------------/
D/-99999--99999999--11-11-11-66666-/-999999--99999--444444444-/
A/-77777--99999999--9--9--9--66666-/-777777--99999--444444444-/
E/--------77777777-----------44444-/---------77777--222222222-/



Intro2 1:31

1:42
¿como me peinaré esta noche?....
e/----------------------------------/
b/-5-5-5-4-4-4--0--0----------------/
g/-------------------1-1-1-1-1-1-1-1/
D/----------------------------------/
A/----------------------------------/
E/----------------------------------/

e/--------------4-4-6-6-6-7-7-7-6-6-/
b/--5-5-5-4-4-4---------------------/
g/----------------------------------/Todo esto se repite 3 veces
D/----------------------------------/y la ultima es diferente
A/----------------------------------/y va así
E/----------------------------------/

/--------------------4-4-6-6-6-7-7-7-9-11?11pull up-/
/-5-5-5-4-4-4-4-------------------------------------/
/---------------------------------------------------/
/---------------------------------------------------/
/---------------------------------------------------/
/---------------------------------------------------/

Coro 2:07

2:30 Luego sigue el solo del piano seguido después del solo
de la guitarra que va así

/-----------------------------------/
b/--12v--9V---12V--8v--12v--9v--12v-/
g/----------------------------------/
D/----------------------------------/Esto se toca junto con el
A/----------------------------------/piano, y despues el solo
E/----------------------------------/


2:56 Solo.


e/-12-12-12-12-12-12-12-/---------------/
b/-12-12-12-12-12-12-12?/12-11-9----9---/
g/----------------------/--------11---8-/3x
D/----------------------/---------------/
A/----------------------/---------------/
E/----------------------/---------------/

e/----------------------------------/
b/-12-11-9-----9--------------------/
g/---------11----8----9-11-9-8-9-8--/
D/----------------------------------/ todo esto 2 veces
A/----------------------------------/
E/----------------------------------/

e/--------------12-11---/-------------12-11-12-14-12-11-/
b/-12-11-9----9-------12/-12-11-9----9------------------/
g/---------11-----------/---------11--------------------/
D/----------------------/-------------------------------/
A/----------------------/-------------------------------/
E/----------------------/-------------------------------/

e/--------------12-11---/--------------------------------/
b/-12-11-9----9------12-/-12-11-9---9--------------------/
g/---------11-----------/---------11--11-9-8-9-8---------/
D/----------------------/------------------------11-9-8--/
A/----------------------/-------------------------------9/
E/----------------------/--------------------------------/


DESPUES VIENE OTRA VEZ EL CORO AHORA JUNTO CON
EL SOLO DE LA GUITARRA Y AHÍ TERMINA LA ROLA

Fuente: tusacordes.com