a b c d e f g h i j k l m n o p q r s t u v w x y z 0-9

Muñeca

Panda

			
ola pzz ak dejando otra rola de pxndx no pzz ojala y les guste

guitarra medio tono abajo

riff 1

1-------------------------------
2-----3-------3-5-6-5-3-1-3-1-0-
3-5-------5---------------------
4---5---5---5-------------------
5-3-------3---------------------
6-------------------------------

riff 2
 
1----------------------------------
2-7-10-5-7-5-----8-7-7-10-5-7-5----
3------------7-7-----------------7-
4----------------------------------
5----------------------------------
6----------------------------------

solo


1---------------------------------------------
2-7-10-5-7-5-----8-7-7-10-5-7-5----11-11-10-8-
3------------7-7-----------------7------------
4---------------------------------------------
5---------------------------------------------
6---------------------------------------------

1---------------------------------------------------------------
2-7-10-5-7-5-----10-10-13------12-13------12-13------12-13------
3------------7-7----------11-9-------11-9-------11-9-------11-9-
4---------------------------------------------------------------
5---------------------------------------------------------------
6---------------------------------------------------------------

1-11-11-11-11-9-9--
2------------------
3------------------
4------------------
5------------------
6------------------

Fuente: tusacordes.com