a b c d e f g h i j k l m n o p q r s t u v w x y z 0-9

Muñeca

Panda

			
intro
|----------------------------------------|
|--1----3----1-----3-5-6-5-3-1-1h3-1-0---|
|-----0----------------------------------|
|----------------------------------------|x2
|--3------3-----3------------------------|
|----------------------------------------|

ahora ia con distorsión 
|--------------------------------------|
|--------------------------------------|
|--5-5-5-5-----------------------------|
|--5-5-5-5--5-5-5-5--7-7-7-7--3-3-3-3--|x4
|--3-3-3-3--5-5-5-5--7-7-7-7--3-3-3-3--|
|-----------3-3-3-3--5-5-5-5--1-1-1-1--|


|---------0-1-0------------|
|-1-3-1-3-------3-1-1h3-1-0|
|--------------------------|
|--------------------------| x4
|--------------------------|
|--------------------------|


necesitas un abrigo entre.....
|--------------------------------------|
|--------------------------------------|
|--5-5-5-5-----------------------------|
|--5-5-5-5--5-5-5-5--7-7-7-7--3-3-3-3--|x2
|--3-3-3-3--5-5-5-5--7-7-7-7--3-3-3-3--|
|-----------3-3-3-3--5-5-5-5--1-1-1-1--|


Coro
Mi muñeca esta iorando......
|--------------------------------------|
|--------------------------------------|
|--5-5-5-5-----------------------------|
|--5-5-5-5--5-5-5-5--7-7-7-7--3-3-3-3--|x4
|--3-3-3-3--5-5-5-5--7-7-7-7--3-3-3-3--|
|-----------3-3-3-3--5-5-5-5--1-1-1-1--|

Intermedio

|---------0-1-0------------|
|-1-3-1-3-------3-1-1h3-1-0|
|--------------------------|
|--------------------------|x2
|--------------------------|
|--------------------------|


|--------------------------------------|
|--------------------------------------|
|--5-5-5-5-----------------------------|
|--5-5-5-5--5-5-5-5--7-7-7-7--3-3-3-3--|x2
|--3-3-3-3--5-5-5-5--7-7-7-7--3-3-3-3--|
|-----------3-3-3-3--5-5-5-5--1-1-1-1--|

necesitas un amigo.....
|--------------------------------------|
|--------------------------------------|
|--5-5-5-5-----------------------------|
|--5-5-5-5--5-5-5-5--7-7-7-7--3-3-3-3--|x2
|--3-3-3-3--5-5-5-5--7-7-7-7--3-3-3-3--|
|-----------3-3-3-3--5-5-5-5--1-1-1-1--|


Coro
Mi muñeca esta iorando.....
|--------------------------------------|
|--------------------------------------|
|--7-7-7-7-----------------------------|
|--7-7-7-7--7-7-7-7--9-9-9-9--5-5-5-5--|x4
|--5-5-5-5--7-7-7-7--9-9-9-9--5-5-5-5--|
|-----------5-5-5-5--7-7-7-7--3-3-3-3--|


Silencio...........................

Sohloh:
------------------------------------------------------------------------------
--7-10---7-5------7-5---7-10---7-5---11-11-10-8---7-10---7-5---11-11-/14------
-------9-----7-7-------------9-----7-------------------9-----7----------------
------------------------------------------------------------------------------
------------------------------------------------------------------------------
------------------------------------------------------------------------------


-------------------------------------------11-11-11-11/9-9-9------------------
-------13-14-------13-14-------13-14------------------------------------------
-12-10-------12-10-------12-10-------12-10------------------------------------
------------------------------------------------------------------------------
------------------------------------------------------------------------------
------------------------------------------------------------------------------

|--------------------------------------|
|--------------------------------------|
|--7-7-7-7-----------------------------|
|--7-7-7-7--7-7-7-7--9-9-9-9--5-5-5-5--|x4
|--5-5-5-5--7-7-7-7--9-9-9-9--5-5-5-5--|
|-----------5-5-5-5--7-7-7-7--3-3-3-3--|

Coro
Mi muñeca esta iorando....
|--------------------------------------|
|--------------------------------------|
|--7-7-7-7-----------------------------|
|--7-7-7-7--7-7-7-7--9-9-9-9--5-5-5-5--|x4
|--5-5-5-5--7-7-7-7--9-9-9-9--5-5-5-5--|
|-----------5-5-5-5--7-7-7-7--3-3-3-3--|


sabes q fue talevez.....                nadie la hizo iorar......
|--------------------------------------|-------------------------|
|--------------------------------------|-------------------------|
|--7-7-7-7-----------------------------|------------7-7-7--------|
|--7-7-7-7--5-5-5-5--7-7-7-7--5-5-5-5--|-7-7-7-7-7--7-7-7--------|
|--5-5-5-5--5-5-5-5--7-7-7-7--5-5-5-5--|-7-7-7-7-7--5-5-5--------|
|-----------3-3-3-3--5-5-5-5--3-3-3-3--|-5-5-5-5-5---------------|
io la kiero mas no........
|--------------------------------------|
|--------------------------------------|
|--7-7-7-7-----------------------------|
|--7-7-7-7--5-5-5-5--7-7-7-7--5-5-5-5--|
|--5-5-5-5--5-5-5-5--7-7-7-7--5-5-5-5--|
|-----------3-3-3-3--5-5-5-5--3-3-3-3--|

Nadie la hizo iorar.......
|--------------------------------|
|--------------------------------|
|---------------7-7-7-7----------|
|-7-7-7-7-7-7-7-7-7-7-7--5-5-5-5-|x5
|-7-7-7-7-7-7-7-5-5-5-5--5-5-5-5-|
|-5-5-5-5-5-5-5----------3-3-3-3-|

i termina en:
|---|
|---|
|---|
|-7-|
|-7-|
|-5-|


weno carnales eso es todo!! i ps esta es una nueva versión q sake!! i pa los q habían visto 
mi versión anteror d esta rola ps les pido perdón!! xq no ta bn hecha!! pero esa era 
la primera tab q hacia!! x eso sta así!! jejeje!!! i ps correciones, felicitaciones,
reclamos etc... a tankian_28@hotmail.com

Fuente: tusacordes.com