a b c d e f g h i j k l m n o p q r s t u v w x y z 0-9

Muñeca

Panda

			
G----------------------------------
D----------------------------------
A--2-2-2-2-------------------------  x17
E----------2-2-2-2-4-4-4-4-0-0-0-0-


?Pero te pido que me mates...?
G----------------------------
D----------------------------
A--2-2-2-2-------------------
E----------2-2-2-2-4-4-4-4-0-


?Mi muñeca está llorando...?
G----------------------------------
D----------------------------------
A--4-4-4-4-------------------------  x4
E----------4-4-4-4-6-6-6-6-2-2-2-2-


G------------------------------------
D------------------------------------
A--4-4-4-4-------------------------4-
E----------4-4-4-4-6-6-6-6-2-2-2-2---


G----------------------------------
D----------------------------------
A--4-4-4-4-------------------------  x8
E----------4-4-4-4-6-6-6-6-2-2-2-2-


?Sabes que fue...?
G----------------------------------
D----------------------------------
A--4-4-4-4-------------------------  x8
E----------4-4-4-4-2-2-2-2-2-2-2-2-


G----
D----
A--4-
E----


Fuente: tusacordes.com