a b c d e f g h i j k l m n o p q r s t u v w x y z 0-9

Muñeca

Panda

			
soy el tal Fix pero me dicen PituR o Piturcio
chekenleee me quedooo bnn si no manden sus dudas,
comentarios, correcciones  o quejas a casillasr1@hotmail.com
SOLO: Mientras toca la Guitarra 1 con el cambio de tono
e--------------------------|-------------------------|
b----9---------------------|----9----------11-11-9-7-|
g-10---8-10-8--------11-10-|-10---8-10-8-------------|
d-------------11-11--------|-------------11----------|
a--------------------------|-------------------------|
E--------------------------|-------------------------|

e--------------------9-------9-------9--------9----------11-11-9-9-9-9~-|
b----9----------11-11---------------------------------------------------|
g-10--8-10-8----------11-10----11-10----11-10-----11-10-----------------|
d------------11---------------------------------------------------------|
a-----------------------------------------------------------------------|
E-----------------------------------------------------------------------|

 

Fuente: tusacordes.com