a b c d e f g h i j k l m n o p q r s t u v w x y z 0-9

Miedo A Las Alturas

Panda

C#m
A
B
E
			
Miedo a las alturas

C#m-A-B.

C#m                   A             E    B
Te acuerdas cuando me dijiste dificil se pondra eso fue lo que paso
C#m                        A       E         B
y prometiste que cuando yo muera guardarias mi corazon
C#m- A- B  x2
C#m                A       E
el daño que causaste era lo unico que
           B                  C#m
me podia matar heridas temporales
A             E           B
no basto atacame si yo sabre
A          B        E        B     C#m
y de la muerte yo regresare y te buscare
A                         B   E      B C#m
te llevare conmigo de regreso y recuperare
A             B
la vida me robaste
C#m  A  B   x2

Puente

e--------------------------------------------------------------------|

B-------9----------9------------------7---------7--------------------|

G----9---------9----------9--------8---------8---------8-------------|

D-9--------9-----------9--------9---------9---------9----------------|

A--------------------------------------------------------------------|

E--------------------------------------------------------------------|


e--------------------------------------------------------------------|

B-------5------5------------4------4---------------------------------|

G----6-------6------6-----4------4--------4--------------------------|

D--6-------6------6-----4------4--------4----------------------------|

A--------------------------------------------------------------------|

E--------------------------------------------------------------------|


vida se va eso me ayuda a pensar
aquellas luces brillantes no me mataran
solos tu y yo
tus ojos no hay color
yo vengare mi fantasma con todo mi corazon

A                    B            E        B     C#m
no fue tan hondo el pozo pues ya estoy saliendo de el
A                    B          E      B       C#m
se te acaban los lugares donde te puedas esconder
A             B
donde te puedas esconder?
 

Fuente: tusacordes.com