a b c d e f g h i j k l m n o p q r s t u v w x y z 0-9

Miedo A Las Alturas

Panda

			
intro:
eb|------------------------------------------------------------------------------|
Bb|------------------------------------------------------------------------------|
Gb|----5----5---5----------------------------------------------------------------|
Db|--3----3----3-----------------------------------------------------------------|
Ab|-5-5--5-5--5------------------------------------------------------------------|
Eb|----------------1111-3333-33--------------------------------------------------|
... ... .. .... .... ..
verso:
eb|---------------------------------------------------------------------------|
Bb|---------------------------------------------------------------------------|
Gb|5555-3333--------55555-----------------------------------------------------|
Db|3333-3333--3333--55555-----------------------------------------------------|x2
Ab|5555-1111--3333--33333-----------------------------------------------------|
Eb|-----------1111------------------------------------------------------------|
break:
eb|---------------------------------------------------------------------------|
Bb|---------------------------------------------------------------------------|
Gb|5555--5555-55-3333-5555-55-------------------------------------------------|x2
Db|3333--3333-33-3333-5555-55-------------------------------------------------|
Ab|5555--5555-55-1111-3333-33-------------------------------------------------|
Eb|---------------------------------------------------------------------------|
verso: palm mute
eb|---------------------------------------------------------------------------|
Bb|---------------------------------------------------------------------------|
Gb|5555-3333--------55555-----------------------------------------------------|
Db|3333-3333--3333--55555-----------------------------------------------------|x2
Ab|5555-1111--3333--33333-----------------------------------------------------|
Eb|-----------1111------------------------------------------------------------|
coro:
eb|---------------------------|
Bb|---------------------------|
Gb|3*--5*--------55555--7777--|
Db|3*--5*--3333--55555--7777--|
Ab|1*--3*--3333--33333--5555--|
Eb|--------1111--33333--------|
y de la muerte yo...
eb|----------------------------|
Bb|----------------------------|
Gb|3333-5555-------5555--7777--|
Db|3333-5555-3333--5555--7777--|
Ab|1111-3333-3333--3333--5555--|
Eb|----------1111--3333--------|
te llevare conmigo....

breakx1
interlude:
eb|--5--5-5---3--3--1--1-1--0--0-1--------------------------------------------|
Bb|-6--6-----5--5--3--3----1--1-----------------------------------------------|
Gb|7--7--7--5--5--3--3--3-0--0--0---------------------------------------------|
Db|---------------------------------------------------------------------------|x4
Ab|---------------------------------------------------------------------------|
Eb|---------------------------------------------------------------------------|
.. .. . .. .. .. .. . .. .. .
coro x1
guitarra 1: arreglo guitarra 2: arreglo
eb|---------------------|------------------------------------------------------|
Bb|---------------------|---------13-------------------------------------------|
Gb|------9-10-9---------|-12-14-15--15-14--------------------------------------| 
se
varias veces y luego
Db|-10-12------10-------|------------------------------------------------------|
Ab|---------------------|------------------------------------------------------|
Eb|---------------------|------------------------------------------------------|
guitarra 1: toka el break
guitarra 2:
eb|15-15-15-15-15-15-15-15-15-----------------------------------------|
Bb|x--x--x--x--x--x--x--x--x------------------------------------------|
Gb|12-12-12-12-12-12-12-12-12-----------------------------------------|
Db|-------------------------------------------------------------------|
Ab|-------------------------------------------------------------------|

versox1
acaba en el acorde inicial

Fuente: tusacordes.com