a b c d e f g h i j k l m n o p q r s t u v w x y z 0-9

Mi Muñeca

Panda

			
INTRO:


1---------------------------------0----1----0------------
2---1-------3-------1--------3-------------------3----1---
3-------0-------O-------0---------------------------------
4---------------------------------------------------------
5---3-------3-------3--------3----------------------------
6---------------------------------------------------------


1---------------------------------------------------------
2--1/3---1----0-------------------------------------------
3---------------------------------------------------------
4---------------------------------------------------------
5---------------------------------------------------------
6---------------------------------------------------------


CON LA NOTA--C--ES MAS FACIL ENTONAR EL INTRO INTENTELO

Fuente: Tusacordes