a b c d e f g h i j k l m n o p q r s t u v w x y z 0-9

Mi Muñeca

Panda

			
espero y les guste esta otrita cancion mas

es de panda y la cancion se llama mi muñeca para sugerencias este es mi correo

haro.bmx_@hotmail.com


panda---mi muñeca
intro 
e|------------------------------------|
b|-1---3---1---3-5-6-5-3-1---1h3-1-0--|
g|---0---0---0------------------------| x2 
d|------------------------------------|
a|-3---------------0------------------|
d|---------3---------------3----------|

entra la guitarra con distor guitarra 1
e|-------------------------------------| |------| 
b|-------------------------------------| |------| 
g|-5-5-5-5-----------------------------| x4 |---5--| 
d|-5-5-5-5--5-5-5-5--7-7-7-7--3-3-3-3--| |---5--| 
a|-3-3-3-3--5-5-5-5--7-7-7-7--3-3-3-3--| |---3--| 
d|----------3-3-3-3--5-5-5-5--1-1-1-1--| |------| 
sigue el intro
guitarra 2 con distor
e|----------------------------------| |---| 
b|-1-3-1-3-5-6-5-3-1-3-1-0----------| |-1-| 
g|----------------------------------| |---| 
d|----------------------------------| |---| 
a|----------------------------------| |---| 
d|----------------------------------| |---| 

verso: necesitas una abrigo... guitarra 1
e|-------------------------------------| 
b|-------------------------------------| 
g|-5-5-5-5-----------------------------|x 2 
d|-5-5-5-5--5-5-5-5--7-7-7-7--3-3-3-3--| 
a|-3-3-3-3--5-5-5-5--7-7-7-7--3-3-3-3--| 
d|----------3-3-3-3--5-5-5-5--1-1-1-1--| 

guitarra 2

e|-------------------------------------| 
b|-------------------------------------| 
g|-5-5-5-5-----------------------------| x2 
d|-5-5-5-5--5-5-5-5--7-7-7-7--5-5-5-5--| 
a|-3-3-3-3--5-5-5-5--7-7-7-7--5-5-5-5--| 
d|----------3-3-3-3--5-5-5-5--3-3-3-3--|

coro:1 

e|-------------------------------------| 
b|-------------------------------------| 
g|-5-5-5-5-----------------------------|x4 
d|-5-5-5-5--5-5-5-5--7-7-7-7--3-3-3-3--| 
a|-3-3-3-3--5-5-5-5--7-7-7-7--3-3-3-3--| 
d|----------3-3-3-3--5-5-5-5--1-1-1-1--| 

guitarra 2
e|-------------------------------------| 
b|-------------------------------------| 
g|-5-5-5-5-----------------------------|x4 
d|-5-5-5-5--5-5-5-5--7-7-7-7--5-5-5-5--| 
a|-3-3-3-3--5-5-5-5--7-7-7-7--5-5-5-5--| 
d|----------3-3-3-3--5-5-5-5--3-3-3-3--|

se repite elintro con distor las 2 guitarras
guitarra 1
e|-------------------------------------| |------| 
b|-------------------------------------| |------| 
g|-5-5-5-5-----------------------------| x4 |---5--| 
d|-5-5-5-5--5-5-5-5--7-7-7-7--3-3-3-3--| |---5--| 
a|-3-3-3-3--5-5-5-5--7-7-7-7--3-3-3-3--| |---3--| 
d|----------3-3-3-3--5-5-5-5--1-1-1-1--| |------| 
sigue el intro
guitarra 2 con distor
e|----------------------------------| |---| 
b|-1-3-1-3-5-6-5-3-1-3-1-0----------| |-1-| 
g|----------------------------------| |---| 
d|----------------------------------| |---| 
a|----------------------------------| |---| 
d|----------------------------------| |---| 
verso: necesitas un amigo...

e|-------------------------------------| 
b|-------------------------------------| 
g|-5-5-5-5-----------------------------|x 2 
d|-5-5-5-5--5-5-5-5--7-7-7-7--3-3-3-3--| 
a|-3-3-3-3--5-5-5-5--7-7-7-7--3-3-3-3--| 
d|----------3-3-3-3--5-5-5-5--1-1-1-1--| 

guitarra 2

e|-------------------------------------| 
b|-------------------------------------| 
g|-5-5-5-5-----------------------------| x2 
d|-5-5-5-5--5-5-5-5--7-7-7-7--5-5-5-5--| 
a|-3-3-3-3--5-5-5-5--7-7-7-7--5-5-5-5--| 
d|----------3-3-3-3--5-5-5-5--3-3-3-3--|

coro 2 cambian los acordes
e|-------------------------------------| 
b|-------------------------------------| 
g|-7-7-7-7-----------------------------|x4 
d|-7-7-7-7--7-7-7-7--9-9-9-9--7-7-7-7--| 
a|-5-5-5-5--7-7-7-7--9-9-9-9--7-7-7-7--| 
d|----------5-5-5-5--7-7-7-7--5-5-5-5--| 

solo
e|-----------------------------------------5/7-7--5---------------------|
b|-5/7-10-5-7-5-3-3-3/8-7--5/7-10-5-7-5-3-----------8----7-10-5-7-5-3---|
g|----------------------------------------------------------------------| 
d|----------------------------------------------------------------------|
a|----------------------------------------------------------------------|
d|----------------------------------------------------------------------|

e|5/7--7/10-10----9-10----9-10----9-10-----10/12-12-12-12/10--|
b|-------------8-7-----8-7-----8-7-----8-7--------------------|
g|------------------------------------------------------------| 
d|------------------------------------------------------------|
a|------------------------------------------------------------|
d|------------------------------------------------------------|

la guitarra 2 se sigue con el coro

outro termina con el coro 2 con el cambio de acordes
e|-------------------------------------| 
b|-------------------------------------| 
g|-7-7-7-7-----------------------------|x4 
d|-7-7-7-7--7-7-7-7--9-9-9-9--7-7-7-7--| 
a|-5-5-5-5--7-7-7-7--9-9-9-9--7-7-7-7--| 
d|----------5-5-5-5--7-7-7-7--5-5-5-5--| 

guitarra 1 :_nadie la hizo llorar...
e|-9/11-11-11-------| 
b|-----------11-9-8-| 
g|------------------| 
d|------------------| 
a|------------------| 
d|------------------| 

Fuente: tusacordes.com